  0
SECTION
  2
HEADER
  9
$ACADVER
  1
AC1015
  9
$ACADMAINTVER
 70
     6
  9
$DWGCODEPAGE
  3
ANSI_1251
  9
$INSBASE
 10
0.0
 20
0.0
 30
0.0
  9
$EXTMIN
 10
-193.0
 20
-89.0
 30
0.0
  9
$EXTMAX
 10
193.0
 20
89.0
 30
0.0
  9
$LIMMIN
 10
0.0
 20
0.0
  9
$LIMMAX
 10
420.0
 20
297.0
  9
$ORTHOMODE
 70
     0
  9
$REGENMODE
 70
     1
  9
$FILLMODE
 70
     1
  9
$QTEXTMODE
 70
     0
  9
$MIRRTEXT
 70
     1
  9
$LTSCALE
 40
1.0
  9
$ATTMODE
 70
     1
  9
$TEXTSIZE
 40
4.0
  9
$TRACEWID
 40
1.0
  9
$TEXTSTYLE
  7
Standard
  9
$CLAYER
  8
0
  9
$CELTYPE
  6
ByLayer
  9
$CECOLOR
 62
   256
  9
$CELTSCALE
 40
1.0
  9
$DISPSILH
 70
     0
  9
$DIMSCALE
 40
1.0
  9
$DIMASZ
 40
6.0
  9
$DIMEXO
 40
1.0
  9
$DIMDLI
 40
3.75
  9
$DIMRND
 40
0.0
  9
$DIMDLE
 40
0.0
  9
$DIMEXE
 40
1.0
  9
$DIMTP
 40
0.0
  9
$DIMTM
 40
0.0
  9
$DIMTXT
 40
4.0
  9
$DIMCEN
 40
2.5
  9
$DIMTSZ
 40
0.0
  9
$DIMTOL
 70
     0
  9
$DIMLIM
 70
     0
  9
$DIMTIH
 70
     1
  9
$DIMTOH
 70
     1
  9
$DIMSE1
 70
     0
  9
$DIMSE2
 70
     0
  9
$DIMTAD
 70
     1
  9
$DIMZIN
 70
     0
  9
$DIMBLK
  1

  9
$DIMASO
 70
     1
  9
$DIMSHO
 70
     1
  9
$DIMPOST
  1

  9
$DIMAPOST
  1

  9
$DIMALT
 70
     0
  9
$DIMALTD
 70
     3
  9
$DIMALTF
 40
0.0393700787
  9
$DIMLFAC
 40
1.0
  9
$DIMTOFL
 70
     1
  9
$DIMTVP
 40
0.0
  9
$DIMTIX
 70
     0
  9
$DIMSOXD
 70
     0
  9
$DIMSAH
 70
     0
  9
$DIMBLK1
  1

  9
$DIMBLK2
  1

  9
$DIMSTYLE
  2
ISO-25
  9
$DIMCLRD
 70
     0
  9
$DIMCLRE
 70
     0
  9
$DIMCLRT
 70
     0
  9
$DIMTFAC
 40
1.0
  9
$DIMGAP
 40
3.0
  9
$DIMJUST
 70
     0
  9
$DIMSD1
 70
     0
  9
$DIMSD2
 70
     0
  9
$DIMTOLJ
 70
     0
  9
$DIMTZIN
 70
     0
  9
$DIMALTZ
 70
     0
  9
$DIMALTTZ
 70
     0
  9
$DIMUPT
 70
     0
  9
$DIMDEC
 70
     2
  9
$DIMTDEC
 70
     4
  9
$DIMALTU
 70
     2
  9
$DIMALTTD
 70
     3
  9
$DIMTXSTY
  7
Standard
  9
$DIMAUNIT
 70
     0
  9
$DIMADEC
 70
     2
  9
$DIMALTRND
 40
0.0
  9
$DIMAZIN
 70
     0
  9
$DIMDSEP
 70
    44
  9
$DIMATFIT
 70
     3
  9
$DIMFRAC
 70
     0
  9
$DIMLDRBLK
  1

  9
$DIMLUNIT
 70
     2
  9
$DIMLWD
 70
    -2
  9
$DIMLWE
 70
    -2
  9
$DIMTMOVE
 70
     0
  9
$LUNITS
 70
     2
  9
$LUPREC
 70
     2
  9
$SKETCHINC
 40
1.0
  9
$FILLETRAD
 40
10.0
  9
$AUNITS
 70
     0
  9
$AUPREC
 70
     2
  9
$MENU
  1
.
  9
$ELEVATION
 40
0.0
  9
$PELEVATION
 40
0.0
  9
$THICKNESS
 40
0.0
  9
$LIMCHECK
 70
     0
  9
$CHAMFERA
 40
0.0
  9
$CHAMFERB
 40
0.0
  9
$CHAMFERC
 40
0.0
  9
$CHAMFERD
 40
0.0
  9
$SKPOLY
 70
     0
  9
$TDCREATE
 40
2457792.57453507
  9
$TDUCREATE
 40
2457792.366201736
  9
$TDUPDATE
 40
2457792.574570706
  9
$TDUUPDATE
 40
2457792.366237373
  9
$TDINDWG
 40
0.0000000116
  9
$TDUSRTIMER
 40
0.0000000116
  9
$USRTIMER
 70
     1
  9
$ANGBASE
 50
0.0
  9
$ANGDIR
 70
     0
  9
$PDMODE
 70
     0
  9
$PDSIZE
 40
-1.0
  9
$PLINEWID
 40
0.0
  9
$SPLFRAME
 70
     0
  9
$SPLINETYPE
 70
     6
  9
$SPLINESEGS
 70
     8
  9
$HANDSEED
  5
2EE
  9
$SURFTAB1
 70
     6
  9
$SURFTAB2
 70
     6
  9
$SURFTYPE
 70
     6
  9
$SURFU
 70
     6
  9
$SURFV
 70
     6
  9
$UCSBASE
  2

  9
$UCSNAME
  2

  9
$UCSORG
 10
0.0
 20
0.0
 30
0.0
  9
$UCSXDIR
 10
1.0
 20
0.0
 30
0.0
  9
$UCSYDIR
 10
0.0
 20
1.0
 30
0.0
  9
$UCSORTHOREF
  2

  9
$UCSORTHOVIEW
 70
     0
  9
$UCSORGTOP
 10
0.0
 20
0.0
 30
0.0
  9
$UCSORGBOTTOM
 10
0.0
 20
0.0
 30
0.0
  9
$UCSORGLEFT
 10
0.0
 20
0.0
 30
0.0
  9
$UCSORGRIGHT
 10
0.0
 20
0.0
 30
0.0
  9
$UCSORGFRONT
 10
0.0
 20
0.0
 30
0.0
  9
$UCSORGBACK
 10
0.0
 20
0.0
 30
0.0
  9
$PUCSBASE
  2

  9
$PUCSNAME
  2

  9
$PUCSORG
 10
0.0
 20
0.0
 30
0.0
  9
$PUCSXDIR
 10
1.0
 20
0.0
 30
0.0
  9
$PUCSYDIR
 10
0.0
 20
1.0
 30
0.0
  9
$PUCSORTHOREF
  2

  9
$PUCSORTHOVIEW
 70
     0
  9
$PUCSORGTOP
 10
0.0
 20
0.0
 30
0.0
  9
$PUCSORGBOTTOM
 10
0.0
 20
0.0
 30
0.0
  9
$PUCSORGLEFT
 10
0.0
 20
0.0
 30
0.0
  9
$PUCSORGRIGHT
 10
0.0
 20
0.0
 30
0.0
  9
$PUCSORGFRONT
 10
0.0
 20
0.0
 30
0.0
  9
$PUCSORGBACK
 10
0.0
 20
0.0
 30
0.0
  9
$USERI1
 70
     0
  9
$USERI2
 70
     0
  9
$USERI3
 70
     0
  9
$USERI4
 70
     0
  9
$USERI5
 70
     0
  9
$USERR1
 40
0.0
  9
$USERR2
 40
0.0
  9
$USERR3
 40
0.0
  9
$USERR4
 40
0.0
  9
$USERR5
 40
0.0
  9
$WORLDVIEW
 70
     1
  9
$SHADEDGE
 70
     3
  9
$SHADEDIF
 70
    70
  9
$TILEMODE
 70
     1
  9
$MAXACTVP
 70
    64
  9
$PINSBASE
 10
0.0
 20
0.0
 30
0.0
  9
$PLIMCHECK
 70
     0
  9
$PEXTMIN
 10
1.0000000000E+20
 20
1.0000000000E+20
 30
1.0000000000E+20
  9
$PEXTMAX
 10
-1.0000000000E+20
 20
-1.0000000000E+20
 30
-1.0000000000E+20
  9
$PLIMMIN
 10
0.0
 20
0.0
  9
$PLIMMAX
 10
420.0
 20
297.0
  9
$UNITMODE
 70
     0
  9
$VISRETAIN
 70
     1
  9
$PLINEGEN
 70
     0
  9
$PSLTSCALE
 70
     1
  9
$TREEDEPTH
 70
  3020
  9
$CMLSTYLE
  2
Standard
  9
$CMLJUST
 70
     0
  9
$CMLSCALE
 40
20.0
  9
$PROXYGRAPHICS
 70
     1
  9
$MEASUREMENT
 70
     1
  9
$CELWEIGHT
370
    -1
  9
$ENDCAPS
280
     0
  9
$JOINSTYLE
280
     0
  9
$LWDISPLAY
290
     1
  9
$INSUNITS
 70
     4
  9
$HYPERLINKBASE
  1

  9
$STYLESHEET
  1

  9
$XEDIT
290
     1
  9
$CEPSNTYPE
380
     0
  9
$PSTYLEMODE
290
     1
  9
$FINGERPRINTGUID
  2
{68A11CF1-2293-4980-8E4E-8E60A2A3474C}
  9
$VERSIONGUID
  2
{FAEB1C32-E019-11D5-929B-00C0DF256EC4}
  9
$EXTNAMES
290
     1
  9
$PSVPSCALE
 40
0.0
  9
$OLESTARTUP
290
     0
  0
ENDSEC
  0
SECTION
  2
CLASSES
  0
CLASS
  1
ACDBDICTIONARYWDFLT
  2
AcDbDictionaryWithDefault
  3
ObjectDBX Classes
 90
        0
280
     0
281
     0
  0
CLASS
  1
VISUALSTYLE
  2
AcDbVisualStyle
  3
ObjectDBX Classes
 90
     4095
280
     0
281
     0
  0
CLASS
  1
MATERIAL
  2
AcDbMaterial
  3
ObjectDBX Classes
 90
     1153
280
     0
281
     0
  0
CLASS
  1
SCALE
  2
AcDbScale
  3
ObjectDBX Classes
 90
     1153
280
     0
281
     0
  0
CLASS
  1
TABLESTYLE
  2
AcDbTableStyle
  3
ObjectDBX Classes
 90
     4095
280
     0
281
     0
  0
CLASS
  1
MLEADERSTYLE
  2
AcDbMLeaderStyle
  3
ACDB_MLEADERSTYLE_CLASS
 90
     4095
280
     0
281
     0
  0
CLASS
  1
SUN
  2
AcDbSun
  3
SCENEOE
 90
     1153
280
     0
281
     0
  0
CLASS
  1
ACDBPLACEHOLDER
  2
AcDbPlaceHolder
  3
ObjectDBX Classes
 90
        0
280
     0
281
     0
  0
CLASS
  1
LAYOUT
  2
AcDbLayout
  3
ObjectDBX Classes
 90
        0
280
     0
281
     0
  0
ENDSEC
  0
SECTION
  2
TABLES
  0
TABLE
  2
VPORT
  5
8
330
0
100
AcDbSymbolTable
 70
     1
  0
VPORT
  5
29
330
8
100
AcDbSymbolTableRecord
100
AcDbViewportTableRecord
  2
*Active
 70
     0
 10
0.0
 20
0.0
 11
1.0
 21
1.0
 12
0.0
 22
0.0
 13
0.0
 23
0.0
 14
10.0
 24
10.0
 15
10.0
 25
10.0
 16
0.0
 26
0.0
 36
1.0
 17
0.0
 27
0.0
 37
0.0
 40
181.56
 41
2.1685393258
 42
50.0
 43
0.0
 44
0.0
 50
0.0
 51
0.0
 71
     0
 72
   100
 73
     1
 74
     3
 75
     0
 76
     0
 77
     0
 78
     0
281
     0
 65
     1
110
0.0
120
0.0
130
0.0
111
1.0
121
0.0
131
0.0
112
0.0
122
1.0
132
0.0
 79
     0
146
0.0
  0
ENDTAB
  0
TABLE
  2
LTYPE
  5
5
330
0
100
AcDbSymbolTable
 70
     6
  0
LTYPE
  5
14
330
5
100
AcDbSymbolTableRecord
100
AcDbLinetypeTableRecord
  2
ByBlock
 70
     0
  3

 72
    65
 73
     0
 40
0.0
  0
LTYPE
  5
15
330
5
100
AcDbSymbolTableRecord
100
AcDbLinetypeTableRecord
  2
ByLayer
 70
     0
  3

 72
    65
 73
     0
 40
0.0
  0
LTYPE
  5
16
330
5
100
AcDbSymbolTableRecord
100
AcDbLinetypeTableRecord
  2
Continuous
 70
     0
  3
Solid line
 72
    65
 73
     0
 40
0.0
  0
LTYPE
  5
6E
330
5
100
AcDbSymbolTableRecord
100
AcDbLinetypeTableRecord
  2
HIDDEN
 70
     0
  3
Hidden __ __ __ __ __ __ __ __ __ __ __ __ __ __
 72
    65
 73
     2
 40
1.905
 49
1.27
 74
     0
 49
-0.635
 74
     0
  0
LTYPE
  5
6F
330
5
100
AcDbSymbolTableRecord
100
AcDbLinetypeTableRecord
  2
PHANTOM
 70
     0
  3
Phantom ______  __  __  ______  __  __  ______
 72
    65
 73
     6
 40
12.7
 49
6.35
 74
     0
 49
-1.27
 74
     0
 49
1.27
 74
     0
 49
-1.27
 74
     0
 49
1.27
 74
     0
 49
-1.27
 74
     0
  0
LTYPE
  5
70
330
5
100
AcDbSymbolTableRecord
100
AcDbLinetypeTableRecord
  2
CENTER
 70
     0
  3
Center ____ _ ____ _ ____ _ ____ _ ____ _ ____
 72
    65
 73
     4
 40
10.16
 49
6.35
 74
     0
 49
-1.27
 74
     0
 49
1.27
 74
     0
 49
-1.27
 74
     0
  0
LTYPE
  5
71
330
5
100
AcDbSymbolTableRecord
100
AcDbLinetypeTableRecord
  2
CENTERX2
 70
     0
  3
Center (2x) ________  __  ________  __  _____
 72
    65
 73
     4
 40
20.32
 49
12.7
 74
     0
 49
-2.54
 74
     0
 49
2.54
 74
     0
 49
-2.54
 74
     0
  0
LTYPE
  5
72
330
5
100
AcDbSymbolTableRecord
100
AcDbLinetypeTableRecord
  2
DOT2
 70
     0
  3
Dot (.5x) ........................................
 72
    65
 73
     2
 40
0.635
 49
0.0
 74
     0
 49
-0.635
 74
     0
  0
ENDTAB
  0
TABLE
  2
LAYER
  5
2
330
0
100
AcDbSymbolTable
 70
     1
  0
LAYER
  5
10
330
2
100
AcDbSymbolTableRecord
100
AcDbLayerTableRecord
  2
0
 70
     0
 62
     7
  6
Continuous
370
    -3
390
F
  0
ENDTAB
  0
TABLE
  2
STYLE
  5
3
330
0
100
AcDbSymbolTable
 70
     1
  0
STYLE
  5
11
330
3
100
AcDbSymbolTableRecord
100
AcDbTextStyleTableRecord
  2
Standard
 70
     0
 40
0.0
 41
1.0
 50
0.0
 71
     0
 42
4.0
  3
txt
  4

  0
ENDTAB
  0
TABLE
  2
VIEW
  5
6
330
0
100
AcDbSymbolTable
 70
     0
  0
ENDTAB
  0
TABLE
  2
UCS
  5
7
330
0
100
AcDbSymbolTable
 70
     0
  0
ENDTAB
  0
TABLE
  2
APPID
  5
9
330
0
100
AcDbSymbolTable
 70
     1
  0
APPID
  5
12
330
9
100
AcDbSymbolTableRecord
100
AcDbRegAppTableRecord
  2
ACAD
 70
     0
  0
ENDTAB
  0
TABLE
  2
DIMSTYLE
  5
A
330
0
100
AcDbSymbolTable
 70
     1
100
AcDbDimStyleTable
  0
DIMSTYLE
105
27
330
A
100
AcDbSymbolTableRecord
100
AcDbDimStyleTableRecord
  2
ISO-25
 70
     0
 41
2.5
 42
0.625
 43
3.75
 44
1.25
 73
     0
 74
     0
 77
     1
 78
     8
140
2.5
141
2.5
143
0.0393700787
147
0.625
171
     3
172
     1
178
     0
271
     2
272
     2
274
     3
278
    44
283
     0
284
     8
340
11
  0
ENDTAB
  0
TABLE
  2
BLOCK_RECORD
  5
1
330
0
100
AcDbSymbolTable
 70
     1
  0
BLOCK_RECORD
  5
1F
330
1
100
AcDbSymbolTableRecord
100
AcDbBlockTableRecord
  2
*Model_Space
340
22
  0
BLOCK_RECORD
  5
1B
330
1
100
AcDbSymbolTableRecord
100
AcDbBlockTableRecord
  2
*Paper_Space
340
1E
  0
BLOCK_RECORD
  5
23
330
1
100
AcDbSymbolTableRecord
100
AcDbBlockTableRecord
  2
*Paper_Space0
340
26
  0
ENDTAB
  0
ENDSEC
  0
SECTION
  2
BLOCKS
  0
BLOCK
  5
20
330
1F
100
AcDbEntity
  8
0
100
AcDbBlockBegin
  2
*Model_Space
 70
     0
 10
0.0
 20
0.0
 30
0.0
  3
*Model_Space
  1

  0
ENDBLK
  5
21
330
1F
100
AcDbEntity
  8
0
100
AcDbBlockEnd
  0
BLOCK
  5
1C
330
1B
100
AcDbEntity
 67
     1
  8
0
100
AcDbBlockBegin
  2
*Paper_Space
 70
     0
 10
0.0
 20
0.0
 30
0.0
  3
*Paper_Space
  1

  0
ENDBLK
  5
1D
330
1B
100
AcDbEntity
 67
     1
  8
0
100
AcDbBlockEnd
  0
BLOCK
  5
24
330
23
100
AcDbEntity
  8
0
100
AcDbBlockBegin
  2
*Paper_Space0
 70
     0
 10
0.0
 20
0.0
 30
0.0
  3
*Paper_Space0
  1

  0
ENDBLK
  5
25
330
23
100
AcDbEntity
  8
0
100
AcDbBlockEnd
  0
ENDSEC
  0
SECTION
  2
ENTITIES
  0
SPLINE
  5
C1
330
1F
100
AcDbEntity
  8
0
  6
Continuous
 62
     7
370
    15
100
AcDbSpline
210
0.0
220
0.0
230
1.0
 70
     8
 71
     3
 72
     8
 73
     4
 74
     0
 42
0.000000001
 43
0.00000001
 40
0.9024390243902444
 40
0.9024390243902444
 40
0.9024390243902444
 40
0.9024390243902444
 40
0.9268292682926834
 40
0.9268292682926834
 40
0.9268292682926834
 40
0.9268292682926834
 10
-108.1111089399993
 20
44.32047450000002
 30
0.0
 10
-108.5878491599993
 20
44.54111668000003
 30
0.0
 10
-108.9975054399992
 20
44.69470286000003
 30
0.0
 10
-109.3400498399992
 20
44.78296532000002
 30
0.0
  0
SPLINE
  5
C2
330
1F
100
AcDbEntity
  8
0
  6
Continuous
 62
     7
370
    15
100
AcDbSpline
210
0.0
220
0.0
230
1.0
 70
     8
 71
     3
 72
     8
 73
     4
 74
     0
 42
0.000000001
 43
0.00000001
 40
0.8780487804878053
 40
0.8780487804878053
 40
0.8780487804878053
 40
0.8780487804878053
 40
0.9024390243902444
 40
0.9024390243902444
 40
0.9024390243902444
 40
0.9024390243902444
 10
-109.3400498399992
 20
44.78296532000002
 30
0.0
 10
-109.6843823999992
 20
44.87122778000002
 30
0.0
 10
-110.0534139199992
 20
44.91534504000003
 30
0.0
 10
-110.4506927799992
 20
44.91534504000003
 30
0.0
  0
SPLINE
  5
C3
330
1F
100
AcDbEntity
  8
0
  6
Continuous
 62
     7
370
    15
100
AcDbSpline
210
0.0
220
0.0
230
1.0
 70
     8
 71
     3
 72
     8
 73
     4
 74
     0
 42
0.000000001
 43
0.00000001
 40
0.8536585365853663
 40
0.8536585365853663
 40
0.8536585365853663
 40
0.8536585365853663
 40
0.8780487804878053
 40
0.8780487804878053
 40
0.8780487804878053
 40
0.8780487804878053
 10
-110.4506927799992
 20
44.91534504000003
 30
0.0
 10
-111.1817149399993
 20
44.91534504000003
 30
0.0
 10
-111.7961714199993
 20
44.76354702000003
 30
0.0
 10
-112.2923578799992
 20
44.45992304000002
 30
0.0
  0
SPLINE
  5
C4
330
1F
100
AcDbEntity
  8
0
  6
Continuous
 62
     7
370
    15
100
AcDbSpline
210
0.0
220
0.0
230
1.0
 70
     8
 71
     3
 72
     8
 73
     4
 74
     0
 42
0.000000001
 43
0.00000001
 40
0.8292682926829272
 40
0.8292682926829272
 40
0.8292682926829272
 40
0.8292682926829272
 40
0.8536585365853663
 40
0.8536585365853663
 40
0.8536585365853663
 40
0.8536585365853663
 10
-112.2923578799992
 20
44.45992304000002
 30
0.0
 10
-112.8379701999992
 20
44.12629150000002
 30
0.0
 10
-113.1099102199993
 20
43.64083400000003
 30
0.0
 10
-113.1099102199993
 20
43.00712686000003
 30
0.0
  0
SPLINE
  5
C5
330
1F
100
AcDbEntity
  8
0
  6
Continuous
 62
     7
370
    15
100
AcDbSpline
210
0.0
220
0.0
230
1.0
 70
     8
 71
     3
 72
     8
 73
     4
 74
     0
 42
0.000000001
 43
0.00000001
 40
0.8048780487804882
 40
0.8048780487804882
 40
0.8048780487804882
 40
0.8048780487804882
 40
0.8292682926829272
 40
0.8292682926829272
 40
0.8292682926829272
 40
0.8292682926829272
 10
-113.1099102199993
 20
43.00712686000003
 30
0.0
 10
-113.1099102199993
 20
42.72468140000003
 30
0.0
 10
-113.0481069399993
 20
42.46341446000002
 30
0.0
 10
-112.9245003799992
 20
42.22687442000002
 30
0.0
  0
SPLINE
  5
C6
330
1F
100
AcDbEntity
  8
0
  6
Continuous
 62
     7
370
    15
100
AcDbSpline
210
0.0
220
0.0
230
1.0
 70
     8
 71
     3
 72
     8
 73
     4
 74
     0
 42
0.000000001
 43
0.00000001
 40
0.7804878048780491
 40
0.7804878048780491
 40
0.7804878048780491
 40
0.7804878048780491
 40
0.8048780487804882
 40
0.8048780487804882
 40
0.8048780487804882
 40
0.8048780487804882
 10
-112.9245003799992
 20
42.22687442000002
 30
0.0
 10
-112.7991056599992
 20
41.98857416000002
 30
0.0
 10
-112.6278613999992
 20
41.79967182000003
 30
0.0
 10
-112.4071353999992
 20
41.66198350000002
 30
0.0
  0
SPLINE
  5
C7
330
1F
100
AcDbEntity
  8
0
  6
Continuous
 62
     7
370
    15
100
AcDbSpline
210
0.0
220
0.0
230
1.0
 70
     8
 71
     3
 72
     8
 73
     4
 74
     0
 42
0.000000001
 43
0.00000001
 40
0.7560975609756101
 40
0.7560975609756101
 40
0.7560975609756101
 40
0.7560975609756101
 40
0.7804878048780491
 40
0.7804878048780491
 40
0.7804878048780491
 40
0.7804878048780491
 10
-112.4071353999992
 20
41.66198350000002
 30
0.0
 10
-112.2341029799992
 20
41.55609090000003
 30
0.0
 10
-112.0327952799992
 20
41.47486932000002
 30
0.0
 10
-111.8015079599993
 20
41.42016280000003
 30
0.0
  0
SPLINE
  5
C8
330
1F
100
AcDbEntity
  8
0
  6
Continuous
 62
     7
370
    15
100
AcDbSpline
210
0.0
220
0.0
230
1.0
 70
     8
 71
     3
 72
     8
 73
     4
 74
     0
 42
0.000000001
 43
0.00000001
 40
0.731707317073171
 40
0.731707317073171
 40
0.731707317073171
 40
0.731707317073171
 40
0.7560975609756101
 40
0.7560975609756101
 40
0.7560975609756101
 40
0.7560975609756101
 10
-111.8015079599993
 20
41.42016280000003
 30
0.0
 10
-111.5701647599992
 20
41.36366812000003
 30
0.0
 10
-111.2364493999992
 20
41.31955086000003
 30
0.0
 10
-110.7985457799993
 20
41.28599492000003
 30
0.0
  0
SPLINE
  5
CA
330
1F
100
AcDbEntity
  8
0
  6
Continuous
 62
     7
370
    15
100
AcDbSpline
210
0.0
220
0.0
230
1.0
 70
     8
 71
     3
 72
     8
 73
     4
 74
     0
 42
0.000000001
 43
0.00000001
 40
0.682926829268293
 40
0.682926829268293
 40
0.682926829268293
 40
0.682926829268293
 40
0.707317073170732
 40
0.707317073170732
 40
0.707317073170732
 40
0.707317073170732
 10
-109.9863299799993
 20
41.21715076000003
 30
0.0
 10
-109.5554672399992
 20
41.18007438000003
 30
0.0
 10
-109.2570400999992
 20
41.13419690000002
 30
0.0
 10
-109.0910764999992
 20
41.07770222000003
 30
0.0
  0
SPLINE
  5
CB
330
1F
100
AcDbEntity
  8
0
  6
Continuous
 62
     7
370
    15
100
AcDbSpline
210
0.0
220
0.0
230
1.0
 70
     8
 71
     3
 72
     8
 73
     4
 74
     0
 42
0.000000001
 43
0.00000001
 40
0.6585365853658539
 40
0.6585365853658539
 40
0.6585365853658539
 40
0.6585365853658539
 40
0.682926829268293
 40
0.682926829268293
 40
0.682926829268293
 40
0.682926829268293
 10
-109.0910764999992
 20
41.07770222000003
 30
0.0
 10
-108.8421031599992
 20
40.99650858000003
 30
0.0
 10
-108.7184965999992
 20
40.84999122000003
 30
0.0
 10
-108.7184965999992
 20
40.63991036000002
 30
0.0
  0
SPLINE
  5
CC
330
1F
100
AcDbEntity
  8
0
  6
Continuous
 62
     7
370
    15
100
AcDbSpline
210
0.0
220
0.0
230
1.0
 70
     8
 71
     3
 72
     8
 73
     4
 74
     0
 42
0.000000001
 43
0.00000001
 40
0.6341463414634149
 40
0.6341463414634149
 40
0.6341463414634149
 40
0.6341463414634149
 40
0.6585365853658539
 40
0.6585365853658539
 40
0.6585365853658539
 40
0.6585365853658539
 10
-108.7184965999992
 20
40.63991036000002
 30
0.0
 10
-108.7184965999992
 20
40.37867136000003
 30
0.0
 10
-108.8986257799993
 20
40.18800880000002
 30
0.0
 10
-109.2570400999992
 20
40.07149900000002
 30
0.0
  0
SPLINE
  5
CD
330
1F
100
AcDbEntity
  8
0
  6
Continuous
 62
     7
370
    15
100
AcDbSpline
210
0.0
220
0.0
230
1.0
 70
     8
 71
     3
 72
     8
 73
     4
 74
     0
 42
0.000000001
 43
0.00000001
 40
0.6097560975609758
 40
0.6097560975609758
 40
0.6097560975609758
 40
0.6097560975609758
 40
0.6341463414634149
 40
0.6341463414634149
 40
0.6341463414634149
 40
0.6341463414634149
 10
-109.2570400999992
 20
40.07149900000002
 30
0.0
 10
-109.5466381999992
 20
39.97440750000003
 30
0.0
 10
-109.8732847399992
 20
39.92674186000002
 30
0.0
 10
-110.2387958199993
 20
39.92674186000002
 30
0.0
  0
SPLINE
  5
CE
330
1F
100
AcDbEntity
  8
0
  6
Continuous
 62
     7
370
    15
100
AcDbSpline
210
0.0
220
0.0
230
1.0
 70
     8
 71
     3
 72
     8
 73
     4
 74
     0
 42
0.000000001
 43
0.00000001
 40
0.5853658536585368
 40
0.5853658536585368
 40
0.5853658536585368
 40
0.5853658536585368
 40
0.6097560975609758
 40
0.6097560975609758
 40
0.6097560975609758
 40
0.6097560975609758
 10
-110.2387958199993
 20
39.92674186000002
 30
0.0
 10
-110.6537606999993
 20
39.92674186000002
 30
0.0
 10
-111.0722180799992
 20
39.98323654000003
 30
0.0
 10
-111.4960399399993
 20
40.09446568000003
 30
0.0
  0
SPLINE
  5
CF
330
1F
100
AcDbEntity
  8
0
  6
Continuous
 62
     7
370
    15
100
AcDbSpline
210
0.0
220
0.0
230
1.0
 70
     8
 71
     3
 72
     8
 73
     4
 74
     0
 42
0.000000001
 43
0.00000001
 40
0.5609756097560977
 40
0.5609756097560977
 40
0.5609756097560977
 40
0.5609756097560977
 40
0.5853658536585368
 40
0.5853658536585368
 40
0.5853658536585368
 40
0.5853658536585368
 10
-111.4960399399993
 20
40.09446568000003
 30
0.0
 10
-111.9215661399992
 20
40.20742710000003
 30
0.0
 10
-112.2199653399992
 20
40.33804660000003
 30
0.0
 10
-112.3912375399992
 20
40.48987256000003
 30
0.0
  0
SPLINE
  5
D0
330
1F
100
AcDbEntity
  8
0
  6
Continuous
 62
     7
370
    15
100
AcDbSpline
210
0.0
220
0.0
230
1.0
 70
     8
 71
     3
 72
     8
 73
     4
 74
     0
 42
0.000000001
 43
0.00000001
 40
0.5365853658536587
 40
0.5365853658536587
 40
0.5365853658536587
 40
0.5365853658536587
 40
0.5609756097560977
 40
0.5609756097560977
 40
0.5609756097560977
 40
0.5609756097560977
 10
-112.3912375399992
 20
40.48987256000003
 30
0.0
 10
-112.4601096399992
 20
40.55164790000003
 30
0.0
 10
-112.4953978599993
 20
40.62756088000003
 30
0.0
 10
-112.4953978599993
 20
40.71758356000003
 30
0.0
  0
SPLINE
  5
D5
330
1F
100
AcDbEntity
  8
0
  6
Continuous
 62
     7
370
    15
100
AcDbSpline
210
0.0
220
0.0
230
1.0
 70
     8
 71
     3
 72
     8
 73
     4
 74
     0
 42
0.000000001
 43
0.00000001
 40
0.4146341463414635
 40
0.4146341463414635
 40
0.4146341463414635
 40
0.4146341463414635
 40
0.4390243902439026
 40
0.4390243902439026
 40
0.4390243902439026
 40
0.4390243902439026
 10
-113.0904639799993
 20
39.34246058000002
 30
0.0
 10
-113.0322090799993
 20
39.42541444000002
 30
0.0
 10
-112.9668853599992
 20
39.46603920000003
 30
0.0
 10
-112.8980132599993
 20
39.46603920000003
 30
0.0
  0
SPLINE
  5
D6
330
1F
100
AcDbEntity
  8
0
  6
Continuous
 62
     7
370
    15
100
AcDbSpline
210
0.0
220
0.0
230
1.0
 70
     8
 71
     3
 72
     8
 73
     4
 74
     0
 42
0.000000001
 43
0.00000001
 40
0.3902439024390245
 40
0.3902439024390245
 40
0.3902439024390245
 40
0.3902439024390245
 40
0.4146341463414635
 40
0.4146341463414635
 40
0.4146341463414635
 40
0.4146341463414635
 10
-112.8980132599993
 20
39.46603920000003
 30
0.0
 10
-112.8609368799992
 20
39.46603920000003
 30
0.0
 10
-112.8132712399992
 20
39.45366178000003
 30
0.0
 10
-112.7585088399992
 20
39.43072304000003
 30
0.0
  0
SPLINE
  5
D7
330
1F
100
AcDbEntity
  8
0
  6
Continuous
 62
     7
370
    15
100
AcDbSpline
210
0.0
220
0.0
230
1.0
 70
     8
 71
     3
 72
     8
 73
     4
 74
     0
 42
0.000000001
 43
0.00000001
 40
0.3658536585365854
 40
0.3658536585365854
 40
0.3658536585365854
 40
0.3658536585365854
 40
0.3902439024390245
 40
0.3902439024390245
 40
0.3902439024390245
 40
0.3902439024390245
 10
-112.7585088399992
 20
39.43072304000003
 30
0.0
 10
-111.9445048799992
 20
39.06177534000003
 30
0.0
 10
-111.1022535799993
 20
38.87642138000003
 30
0.0
 10
-110.2282065599993
 20
38.87642138000003
 30
0.0
  0
SPLINE
  5
D8
330
1F
100
AcDbEntity
  8
0
  6
Continuous
 62
     7
370
    15
100
AcDbSpline
210
0.0
220
0.0
230
1.0
 70
     8
 71
     3
 72
     8
 73
     4
 74
     0
 42
0.000000001
 43
0.00000001
 40
0.3414634146341464
 40
0.3414634146341464
 40
0.3414634146341464
 40
0.3414634146341464
 40
0.3658536585365854
 40
0.3658536585365854
 40
0.3658536585365854
 40
0.3658536585365854
 10
-110.2282065599993
 20
38.87642138000003
 30
0.0
 10
-109.3629885799993
 20
38.87642138000003
 30
0.0
 10
-108.6761395599992
 20
39.04059682000003
 30
0.0
 10
-108.1693638399992
 20
39.36715954000002
 30
0.0
  0
SPLINE
  5
D9
330
1F
100
AcDbEntity
  8
0
  6
Continuous
 62
     7
370
    15
100
AcDbSpline
210
0.0
220
0.0
230
1.0
 70
     8
 71
     3
 72
     8
 73
     4
 74
     0
 42
0.000000001
 43
0.00000001
 40
0.3170731707317073
 40
0.3170731707317073
 40
0.3170731707317073
 40
0.3170731707317073
 40
0.3414634146341464
 40
0.3414634146341464
 40
0.3414634146341464
 40
0.3414634146341464
 10
-108.1693638399992
 20
39.36715954000002
 30
0.0
 10
-107.6378612199993
 20
39.70962012000003
 30
0.0
 10
-107.3730179599992
 20
40.17389910000002
 30
0.0
 10
-107.3730179599992
 20
40.76348898000003
 30
0.0
  0
SPLINE
  5
DA
330
1F
100
AcDbEntity
  8
0
  6
Continuous
 62
     7
370
    15
100
AcDbSpline
210
0.0
220
0.0
230
1.0
 70
     8
 71
     3
 72
     8
 73
     4
 74
     0
 42
0.000000001
 43
0.00000001
 40
0.2926829268292683
 40
0.2926829268292683
 40
0.2926829268292683
 40
0.2926829268292683
 40
0.3170731707317073
 40
0.3170731707317073
 40
0.3170731707317073
 40
0.3170731707317073
 10
-107.3730179599992
 20
40.76348898000003
 30
0.0
 10
-107.3730179599992
 20
41.08829148000002
 30
0.0
 10
-107.4577599799993
 20
41.37777782000003
 30
0.0
 10
-107.6272719599992
 20
41.63728454000002
 30
0.0
  0
SPLINE
  5
DB
330
1F
100
AcDbEntity
  8
0
  6
Continuous
 62
     7
370
    15
100
AcDbSpline
210
0.0
220
0.0
230
1.0
 70
     8
 71
     3
 72
     8
 73
     4
 74
     0
 42
0.000000001
 43
0.00000001
 40
0.2682926829268292
 40
0.2682926829268292
 40
0.2682926829268292
 40
0.2682926829268292
 40
0.2926829268292683
 40
0.2926829268292683
 40
0.2926829268292683
 40
0.2926829268292683
 10
-107.6272719599992
 20
41.63728454000002
 30
0.0
 10
-107.7614677799993
 20
41.84381702000002
 30
0.0
 10
-107.9309797599993
 20
42.00975268000003
 30
0.0
 10
-108.1393283399992
 20
42.13330336000003
 30
0.0
  0
SPLINE
  5
DC
330
1F
100
AcDbEntity
  8
0
  6
Continuous
 62
     7
370
    15
100
AcDbSpline
210
0.0
220
0.0
230
1.0
 70
     8
 71
     3
 72
     8
 73
     4
 74
     0
 42
0.000000001
 43
0.00000001
 40
0.2439024390243902
 40
0.2439024390243902
 40
0.2439024390243902
 40
0.2439024390243902
 40
0.2682926829268292
 40
0.2682926829268292
 40
0.2682926829268292
 40
0.2682926829268292
 10
-108.1393283399992
 20
42.13330336000003
 30
0.0
 10
-108.5119082399992
 20
42.35397348000003
 30
0.0
 10
-109.0540001199992
 20
42.49166180000002
 30
0.0
 10
-109.7691244199993
 20
42.54639626000003
 30
0.0
  0
SPLINE
  5
DE
330
1F
100
AcDbEntity
  8
0
  6
Continuous
 62
     7
370
    15
100
AcDbSpline
210
0.0
220
0.0
230
1.0
 70
     8
 71
     3
 72
     8
 73
     4
 74
     0
 42
0.000000001
 43
0.00000001
 40
0.1951219512195122
 40
0.1951219512195122
 40
0.1951219512195122
 40
0.1951219512195122
 40
0.2195121951219512
 40
0.2195121951219512
 40
0.2195121951219512
 40
0.2195121951219512
 10
-110.5866488199992
 20
42.60817160000003
 30
0.0
 10
-111.1004933599993
 20
42.65052864000003
 30
0.0
 10
-111.4465861399993
 20
42.70702332000003
 30
0.0
 10
-111.6266873799993
 20
42.77762770000003
 30
0.0
  0
SPLINE
  5
DF
330
1F
100
AcDbEntity
  8
0
  6
Continuous
 62
     7
370
    15
100
AcDbSpline
210
0.0
220
0.0
230
1.0
 70
     8
 71
     3
 72
     8
 73
     4
 74
     0
 42
0.000000001
 43
0.00000001
 40
0.1707317073170732
 40
0.1707317073170732
 40
0.1707317073170732
 40
0.1707317073170732
 40
0.1951219512195122
 40
0.1951219512195122
 40
0.1951219512195122
 40
0.1951219512195122
 10
-111.6266873799993
 20
42.77762770000003
 30
0.0
 10
-111.8050283999992
 20
42.84823208000003
 30
0.0
 10
-111.8950510799992
 20
42.96650210000003
 30
0.0
 10
-111.8950510799992
 20
43.13598614000003
 30
0.0
  0
SPLINE
  5
E0
330
1F
100
AcDbEntity
  8
0
  6
Continuous
 62
     7
370
    15
100
AcDbSpline
210
0.0
220
0.0
230
1.0
 70
     8
 71
     3
 72
     8
 73
     4
 74
     0
 42
0.000000001
 43
0.00000001
 40
0.1463414634146341
 40
0.1463414634146341
 40
0.1463414634146341
 40
0.1463414634146341
 40
0.1707317073170732
 40
0.1707317073170732
 40
0.1707317073170732
 40
0.1707317073170732
 10
-111.8950510799992
 20
43.13598614000003
 30
0.0
 10
-111.8950510799992
 20
43.39194448000003
 30
0.0
 10
-111.7079089599992
 20
43.58612748000002
 30
0.0
 10
-111.3353290599993
 20
43.72026742000002
 30
0.0
  0
SPLINE
  5
E1
330
1F
100
AcDbEntity
  8
0
  6
Continuous
 62
     7
370
    15
100
AcDbSpline
210
0.0
220
0.0
230
1.0
 70
     8
 71
     3
 72
     8
 73
     4
 74
     0
 42
0.000000001
 43
0.00000001
 40
0.1219512195121951
 40
0.1219512195121951
 40
0.1219512195121951
 40
0.1219512195121951
 40
0.1463414634146341
 40
0.1463414634146341
 40
0.1463414634146341
 40
0.1463414634146341
 10
-111.3353290599993
 20
43.72026742000002
 30
0.0
 10
-111.0775266799993
 20
43.81383848000003
 30
0.0
 10
-110.7808876999992
 20
43.85974390000003
 30
0.0
 10
-110.4453841799993
 20
43.85974390000003
 30
0.0
  0
SPLINE
  5
E2
330
1F
100
AcDbEntity
  8
0
  6
Continuous
 62
     7
370
    15
100
AcDbSpline
210
0.0
220
0.0
230
1.0
 70
     8
 71
     3
 72
     8
 73
     4
 74
     0
 42
0.000000001
 43
0.00000001
 40
0.0975609756097561
 40
0.0975609756097561
 40
0.0975609756097561
 40
0.0975609756097561
 40
0.1219512195121951
 40
0.1219512195121951
 40
0.1219512195121951
 40
0.1219512195121951
 10
-110.4453841799993
 20
43.85974390000003
 30
0.0
 10
-110.0534139199992
 20
43.85974390000003
 30
0.0
 10
-109.6649361599992
 20
43.80324922000002
 30
0.0
 10
-109.2817949399992
 20
43.68849964000002
 30
0.0
  0
SPLINE
  5
E3
330
1F
100
AcDbEntity
  8
0
  6
Continuous
 62
     7
370
    15
100
AcDbSpline
210
0.0
220
0.0
230
1.0
 70
     8
 71
     3
 72
     8
 73
     4
 74
     0
 42
0.000000001
 43
0.00000001
 40
0.0731707317073171
 40
0.0731707317073171
 40
0.0731707317073171
 40
0.0731707317073171
 40
0.0975609756097561
 40
0.0975609756097561
 40
0.0975609756097561
 40
0.0975609756097561
 10
-109.2817949399992
 20
43.68849964000002
 30
0.0
 10
-108.8986257799993
 20
43.57553822000002
 30
0.0
 10
-108.6090276799992
 20
43.43078108000002
 30
0.0
 10
-108.4130285799992
 20
43.25425616000003
 30
0.0
  0
SPLINE
  5
E4
330
1F
100
AcDbEntity
  8
0
  6
Continuous
 62
     7
370
    15
100
AcDbSpline
210
0.0
220
0.0
230
1.0
 70
     8
 71
     3
 72
     8
 73
     4
 74
     0
 42
0.000000001
 43
0.00000001
 40
0.0487804878048781
 40
0.0487804878048781
 40
0.0487804878048781
 40
0.0487804878048781
 40
0.0731707317073171
 40
0.0731707317073171
 40
0.0731707317073171
 40
0.0731707317073171
 10
-108.4130285799992
 20
43.25425616000003
 30
0.0
 10
-108.3406360399992
 20
43.18893244000002
 30
0.0
 10
-108.3035596599992
 20
43.09890976000003
 30
0.0
 10
-108.3035596599992
 20
42.98592040000003
 30
0.0
  0
SPLINE
  5
E8
330
1F
100
AcDbEntity
  8
0
  6
Continuous
 62
     7
370
    15
100
AcDbSpline
210
0.0
220
0.0
230
1.0
 70
     8
 71
     3
 72
     8
 73
     4
 74
     0
 42
0.000000001
 43
0.00000001
 40
0.9512195121951225
 40
0.9512195121951225
 40
0.9512195121951225
 40
0.9512195121951225
 40
0.9756097560975615
 40
0.9756097560975615
 40
0.9756097560975615
 40
0.9756097560975615
 10
-107.6043332199992
 20
44.33634442000002
 30
0.0
 10
-107.6908633999993
 20
44.26043144000003
 30
0.0
 10
-107.7614677799993
 20
44.22159484000002
 30
0.0
 10
-107.8162022399992
 20
44.22159484000002
 30
0.0
  0
SPLINE
  5
E9
330
1F
100
AcDbEntity
  8
0
  6
Continuous
 62
     7
370
    15
100
AcDbSpline
210
0.0
220
0.0
230
1.0
 70
     8
 71
     3
 72
     8
 73
     4
 74
     0
 42
0.000000001
 43
0.00000001
 40
0.9268292682926834
 40
0.9268292682926834
 40
0.9268292682926834
 40
0.9268292682926834
 40
0.9512195121951225
 40
0.9512195121951225
 40
0.9512195121951225
 40
0.9512195121951225
 10
-107.8162022399992
 20
44.22159484000002
 30
0.0
 10
-107.8727248599993
 20
44.22159484000002
 30
0.0
 10
-107.9698442999992
 20
44.25515078000002
 30
0.0
 10
-108.1111089399993
 20
44.32047450000002
 30
0.0
  0
SPLINE
  5
EA
330
1F
100
AcDbEntity
  8
0
  6
Continuous
 62
     7
370
    15
100
AcDbSpline
210
0.0
220
0.0
230
1.0
 70
     8
 71
     3
 72
     8
 73
     4
 74
     0
 42
0.000000001
 43
0.00000001
 40
0.8571428571428569
 40
0.8571428571428569
 40
0.8571428571428569
 40
0.8571428571428569
 40
0.8928571428571426
 40
0.8928571428571426
 40
0.8928571428571426
 40
0.8928571428571426
 10
-129.5895368999992
 20
39.37598858000003
 30
0.0
 10
-129.5895368999992
 20
39.27009598000002
 30
0.0
 10
-129.6795875199992
 20
39.19242278000003
 30
0.0
 10
-129.8596887599992
 20
39.14475714000002
 30
0.0
  0
SPLINE
  5
EE
330
1F
100
AcDbEntity
  8
0
  6
Continuous
 62
     7
370
    15
100
AcDbSpline
210
0.0
220
0.0
230
1.0
 70
     8
 71
     3
 72
     8
 73
     4
 74
     0
 42
0.000000001
 43
0.00000001
 40
0.7142857142857141
 40
0.7142857142857141
 40
0.7142857142857141
 40
0.7142857142857141
 40
0.7499999999999998
 40
0.7499999999999998
 40
0.7499999999999998
 40
0.7499999999999998
 10
-127.4247456999992
 20
39.14475714000002
 30
0.0
 10
-127.5765995999992
 20
39.17300448000003
 30
0.0
 10
-127.7125276999992
 20
39.23654004000002
 30
0.0
 10
-127.8308535999992
 20
39.33894014000003
 30
0.0
  0
SPLINE
  5
EF
330
1F
100
AcDbEntity
  8
0
  6
Continuous
 62
     7
370
    15
100
AcDbSpline
210
0.0
220
0.0
230
1.0
 70
     8
 71
     3
 72
     8
 73
     4
 74
     0
 42
0.000000001
 43
0.00000001
 40
0.6785714285714284
 40
0.6785714285714284
 40
0.6785714285714284
 40
0.6785714285714284
 40
0.7142857142857141
 40
0.7142857142857141
 40
0.7142857142857141
 40
0.7142857142857141
 10
-127.8308535999992
 20
39.33894014000003
 30
0.0
 10
-127.9491794999992
 20
39.43955208000002
 30
0.0
 10
-128.1098344999992
 20
39.63194692000003
 30
0.0
 10
-128.3093540399993
 20
39.91263216000003
 30
0.0
  0
SPLINE
  5
F1
330
1F
100
AcDbEntity
  8
0
  6
Continuous
 62
     7
370
    15
100
AcDbSpline
210
0.0
220
0.0
230
1.0
 70
     8
 71
     3
 72
     8
 73
     4
 74
     0
 42
0.000000001
 43
0.00000001
 40
0.607142857142857
 40
0.607142857142857
 40
0.607142857142857
 40
0.607142857142857
 40
0.6428571428571427
 40
0.6428571428571427
 40
0.6428571428571427
 40
0.6428571428571427
 10
-129.4058872799992
 20
41.43958110000003
 30
0.0
 10
-128.8338157799992
 20
41.55609090000003
 30
0.0
 10
-128.4188229599992
 20
41.74672552000003
 30
0.0
 10
-128.1610485199992
 20
42.01151290000003
 30
0.0
  0
SPLINE
  5
F2
330
1F
100
AcDbEntity
  8
0
  6
Continuous
 62
     7
370
    15
100
AcDbSpline
210
0.0
220
0.0
230
1.0
 70
     8
 71
     3
 72
     8
 73
     4
 74
     0
 42
0.000000001
 43
0.00000001
 40
0.5714285714285713
 40
0.5714285714285713
 40
0.5714285714285713
 40
0.5714285714285713
 40
0.607142857142857
 40
0.607142857142857
 40
0.607142857142857
 40
0.607142857142857
 10
-128.1610485199992
 20
42.01151290000003
 30
0.0
 10
-127.9050063599992
 20
42.27454006000003
 30
0.0
 10
-127.7761191399992
 20
42.64169960000002
 30
0.0
 10
-127.7761191399992
 20
43.11125924000002
 30
0.0
  0
SPLINE
  5
F3
330
1F
100
AcDbEntity
  8
0
  6
Continuous
 62
     7
370
    15
100
AcDbSpline
210
0.0
220
0.0
230
1.0
 70
     8
 71
     3
 72
     8
 73
     4
 74
     0
 42
0.000000001
 43
0.00000001
 40
0.5357142857142856
 40
0.5357142857142856
 40
0.5357142857142856
 40
0.5357142857142856
 40
0.5714285714285713
 40
0.5714285714285713
 40
0.5714285714285713
 40
0.5714285714285713
 10
-127.7761191399992
 20
43.11125924000002
 30
0.0
 10
-127.7761191399992
 20
43.72733624000002
 30
0.0
 10
-127.9844677199992
 20
44.17216898000002
 30
0.0
 10
-128.4011928199993
 20
44.44578540000003
 30
0.0
  0
SPLINE
  5
F4
330
1F
100
AcDbEntity
  8
0
  6
Continuous
 62
     7
370
    15
100
AcDbSpline
210
0.0
220
0.0
230
1.0
 70
     8
 71
     3
 72
     8
 73
     4
 74
     0
 42
0.000000001
 43
0.00000001
 40
0.4999999999999998
 40
0.4999999999999998
 40
0.4999999999999998
 40
0.4999999999999998
 40
0.5357142857142856
 40
0.5357142857142856
 40
0.5357142857142856
 40
0.5357142857142856
 10
-128.4011928199993
 20
44.44578540000003
 30
0.0
 10
-128.6059930199993
 20
44.57643284000002
 30
0.0
 10
-128.8373362199992
 20
44.66645552000003
 30
0.0
 10
-129.0951106599992
 20
44.71764160000002
 30
0.0
  0
SPLINE
  5
F5
330
1F
100
AcDbEntity
  8
0
  6
Continuous
 62
     7
370
    15
100
AcDbSpline
210
0.0
220
0.0
230
1.0
 70
     8
 71
     3
 72
     8
 73
     4
 74
     0
 42
0.000000001
 43
0.00000001
 40
0.4642857142857141
 40
0.4642857142857141
 40
0.4642857142857141
 40
0.4642857142857141
 40
0.4999999999999998
 40
0.4999999999999998
 40
0.4999999999999998
 40
0.4999999999999998
 10
-129.0951106599992
 20
44.71764160000002
 30
0.0
 10
-129.3547011999993
 20
44.76706746000003
 30
0.0
 10
-129.7290133799992
 20
44.79179436000003
 30
0.0
 10
-130.2234116799993
 20
44.79179436000003
 30
0.0
  0
SPLINE
  5
F8
330
1F
100
AcDbEntity
  8
0
  6
Continuous
 62
     7
370
    15
100
AcDbSpline
210
0.0
220
0.0
230
1.0
 70
     8
 71
     3
 72
     8
 73
     4
 74
     0
 42
0.000000001
 43
0.00000001
 40
0.357142857142857
 40
0.357142857142857
 40
0.357142857142857
 40
0.357142857142857
 40
0.3928571428571427
 40
0.3928571428571427
 40
0.3928571428571427
 40
0.3928571428571427
 10
-134.0197591799992
 20
44.64703722000002
 30
0.0
 10
-133.8944203399993
 20
44.60996084000003
 30
0.0
 10
-133.8096503799992
 20
44.56229520000002
 30
0.0
 10
-133.7601965799992
 20
44.50758868000002
 30
0.0
  0
SPLINE
  5
F9
330
1F
100
AcDbEntity
  8
0
  6
Continuous
 62
     7
370
    15
100
AcDbSpline
210
0.0
220
0.0
230
1.0
 70
     8
 71
     3
 72
     8
 73
     4
 74
     0
 42
0.000000001
 43
0.00000001
 40
0.3214285714285713
 40
0.3214285714285713
 40
0.3214285714285713
 40
0.3214285714285713
 40
0.357142857142857
 40
0.357142857142857
 40
0.357142857142857
 40
0.357142857142857
 10
-133.7601965799992
 20
44.50758868000002
 30
0.0
 10
-133.7125309399993
 20
44.45285422000003
 30
0.0
 10
-133.6878319799992
 20
44.37166058000002
 30
0.0
 10
-133.6878319799992
 20
44.26397982000003
 30
0.0
  0
SPLINE
  5
FB
330
1F
100
AcDbEntity
  8
0
  6
Continuous
 62
     7
370
    15
100
AcDbSpline
210
0.0
220
0.0
230
1.0
 70
     8
 71
     3
 72
     8
 73
     4
 74
     0
 42
0.000000001
 43
0.00000001
 40
0.2499999999999999
 40
0.2499999999999999
 40
0.2499999999999999
 40
0.2499999999999999
 40
0.2857142857142856
 40
0.2857142857142856
 40
0.2857142857142856
 40
0.2857142857142856
 10
-133.6878319799992
 20
39.52781454000002
 30
0.0
 10
-133.6878319799992
 20
39.42013378000003
 30
0.0
 10
-133.7125309399993
 20
39.33715198000002
 30
0.0
 10
-133.7637170199993
 20
39.27889708000003
 30
0.0
  0
SPLINE
  5
FC
330
1F
100
AcDbEntity
  8
0
  6
Continuous
 62
     7
370
    15
100
AcDbSpline
210
0.0
220
0.0
230
1.0
 70
     8
 71
     3
 72
     8
 73
     4
 74
     0
 42
0.000000001
 43
0.00000001
 40
0.2142857142857142
 40
0.2142857142857142
 40
0.2142857142857142
 40
0.2142857142857142
 40
0.2499999999999999
 40
0.2499999999999999
 40
0.2499999999999999
 40
0.2499999999999999
 10
-133.7637170199993
 20
39.27889708000003
 30
0.0
 10
-133.8131708199992
 20
39.22064218000002
 30
0.0
 10
-133.8979407799993
 20
39.17652492000003
 30
0.0
 10
-134.0197591799992
 20
39.14475714000002
 30
0.0
  0
SPLINE
  5
100
330
1F
100
AcDbEntity
  8
0
  6
Continuous
 62
     7
370
    15
100
AcDbSpline
210
0.0
220
0.0
230
1.0
 70
     8
 71
     3
 72
     8
 73
     4
 74
     0
 42
0.000000001
 43
0.00000001
 40
0.0714285714285714
 40
0.0714285714285714
 40
0.0714285714285714
 40
0.0714285714285714
 40
0.1071428571428571
 40
0.1071428571428571
 40
0.1071428571428571
 40
0.1071428571428571
 10
-131.9697454999993
 20
39.14475714000002
 30
0.0
 10
-132.0933520599993
 20
39.18183352000003
 30
0.0
 10
-132.1798822399992
 20
39.22947122000003
 30
0.0
 10
-132.2293080999993
 20
39.28596590000002
 30
0.0
  0
SPLINE
  5
101
330
1F
100
AcDbEntity
  8
0
  6
Continuous
 62
     7
370
    15
100
AcDbSpline
210
0.0
220
0.0
230
1.0
 70
     8
 71
     3
 72
     8
 73
     4
 74
     0
 42
0.000000001
 43
0.00000001
 40
0.0357142857142857
 40
0.0357142857142857
 40
0.0357142857142857
 40
0.0357142857142857
 40
0.0714285714285714
 40
0.0714285714285714
 40
0.0714285714285714
 40
0.0714285714285714
 10
-132.2293080999993
 20
39.28596590000002
 30
0.0
 10
-132.2770016799992
 20
39.34246058000002
 30
0.0
 10
-132.3017006399992
 20
39.42541444000002
 30
0.0
 10
-132.3017006399992
 20
39.53133498000003
 30
0.0
  0
SPLINE
  5
105
330
1F
100
AcDbEntity
  8
0
  6
Continuous
 62
     7
370
    15
100
AcDbSpline
210
0.0
220
0.0
230
1.0
 70
     8
 71
     3
 72
     8
 73
     4
 74
     0
 42
0.000000001
 43
0.00000001
 40
0.8928571428571426
 40
0.8928571428571426
 40
0.8928571428571426
 40
0.8928571428571426
 40
0.9285714285714283
 40
0.9285714285714283
 40
0.9285714285714283
 40
0.9285714285714283
 10
-129.7555284399992
 20
39.72199754000003
 30
0.0
 10
-129.6460315799993
 20
39.56841136000003
 30
0.0
 10
-129.5895368999992
 20
39.45190156000003
 30
0.0
 10
-129.5895368999992
 20
39.37598858000003
 30
0.0
  0
SPLINE
  5
107
330
1F
100
AcDbEntity
  8
0
  6
Continuous
 62
     7
370
    15
100
AcDbSpline
210
0.0
220
0.0
230
1.0
 70
     8
 71
     3
 72
     8
 73
     4
 74
     0
 42
0.000000001
 43
0.00000001
 40
0.625
 40
0.625
 40
0.625
 40
0.625
 40
0.6875
 40
0.6875
 40
0.6875
 40
0.6875
 10
-144.5418234799992
 20
44.64703722000002
 30
0.0
 10
-144.4164846399992
 20
44.60996084000003
 30
0.0
 10
-144.3317146799992
 20
44.56229520000002
 30
0.0
 10
-144.2822608799993
 20
44.50758868000002
 30
0.0
  0
SPLINE
  5
108
330
1F
100
AcDbEntity
  8
0
  6
Continuous
 62
     7
370
    15
100
AcDbSpline
210
0.0
220
0.0
230
1.0
 70
     8
 71
     3
 72
     8
 73
     4
 74
     0
 42
0.000000001
 43
0.00000001
 40
0.5625
 40
0.5625
 40
0.5625
 40
0.5625
 40
0.625
 40
0.625
 40
0.625
 40
0.625
 10
-144.2822608799993
 20
44.50758868000002
 30
0.0
 10
-144.2345952399992
 20
44.45285422000003
 30
0.0
 10
-144.2098962799992
 20
44.37166058000002
 30
0.0
 10
-144.2098962799992
 20
44.26397982000003
 30
0.0
  0
SPLINE
  5
10A
330
1F
100
AcDbEntity
  8
0
  6
Continuous
 62
     7
370
    15
100
AcDbSpline
210
0.0
220
0.0
230
1.0
 70
     8
 71
     3
 72
     8
 73
     4
 74
     0
 42
0.000000001
 43
0.00000001
 40
0.4375
 40
0.4375
 40
0.4375
 40
0.4375
 40
0.5
 40
0.5
 40
0.5
 40
0.5
 10
-144.2098962799992
 20
39.52781454000002
 30
0.0
 10
-144.2098962799992
 20
39.42013378000003
 30
0.0
 10
-144.2345952399992
 20
39.33715198000002
 30
0.0
 10
-144.2857813199992
 20
39.27889708000003
 30
0.0
  0
SPLINE
  5
10B
330
1F
100
AcDbEntity
  8
0
  6
Continuous
 62
     7
370
    15
100
AcDbSpline
210
0.0
220
0.0
230
1.0
 70
     8
 71
     3
 72
     8
 73
     4
 74
     0
 42
0.000000001
 43
0.00000001
 40
0.375
 40
0.375
 40
0.375
 40
0.375
 40
0.4375
 40
0.4375
 40
0.4375
 40
0.4375
 10
-144.2857813199992
 20
39.27889708000003
 30
0.0
 10
-144.3352351199992
 20
39.22064218000002
 30
0.0
 10
-144.4200050799992
 20
39.17652492000003
 30
0.0
 10
-144.5418234799992
 20
39.14475714000002
 30
0.0
  0
SPLINE
  5
10F
330
1F
100
AcDbEntity
  8
0
  6
Continuous
 62
     7
370
    15
100
AcDbSpline
210
0.0
220
0.0
230
1.0
 70
     8
 71
     3
 72
     8
 73
     4
 74
     0
 42
0.000000001
 43
0.00000001
 40
0.125
 40
0.125
 40
0.125
 40
0.125
 40
0.1875
 40
0.1875
 40
0.1875
 40
0.1875
 10
-142.4918097999993
 20
39.14475714000002
 30
0.0
 10
-142.6154163599992
 20
39.18183352000003
 30
0.0
 10
-142.7019465399992
 20
39.22947122000003
 30
0.0
 10
-142.7513723999992
 20
39.28596590000002
 30
0.0
  0
SPLINE
  5
110
330
1F
100
AcDbEntity
  8
0
  6
Continuous
 62
     7
370
    15
100
AcDbSpline
210
0.0
220
0.0
230
1.0
 70
     8
 71
     3
 72
     8
 73
     4
 74
     0
 42
0.000000001
 43
0.00000001
 40
0.0625
 40
0.0625
 40
0.0625
 40
0.0625
 40
0.125
 40
0.125
 40
0.125
 40
0.125
 10
-142.7513723999992
 20
39.28596590000002
 30
0.0
 10
-142.7990659799993
 20
39.34422080000003
 30
0.0
 10
-142.8237649399993
 20
39.42541444000002
 30
0.0
 10
-142.8237649399993
 20
39.53309520000003
 30
0.0
  0
SPLINE
  5
112
330
1F
100
AcDbEntity
  8
0
  6
Continuous
 62
     7
370
    15
100
AcDbSpline
210
0.0
220
0.0
230
1.0
 70
     8
 71
     3
 72
     8
 73
     4
 74
     0
 42
0.000000001
 43
0.00000001
 40
0.9375
 40
0.9375
 40
0.9375
 40
0.9375
 40
1.0
 40
1.0
 40
1.0
 40
1.0
 10
-142.8237649399993
 20
44.26397982000003
 30
0.0
 10
-142.8237649399993
 20
44.37166058000002
 30
0.0
 10
-142.7990659799993
 20
44.45285422000003
 30
0.0
 10
-142.7513723999992
 20
44.50934890000002
 30
0.0
  0
SPLINE
  5
113
330
1F
100
AcDbEntity
  8
0
  6
Continuous
 62
     7
370
    15
100
AcDbSpline
210
0.0
220
0.0
230
1.0
 70
     8
 71
     3
 72
     8
 73
     4
 74
     0
 42
0.000000001
 43
0.00000001
 40
0.875
 40
0.875
 40
0.875
 40
0.875
 40
0.9375
 40
0.9375
 40
0.9375
 40
0.9375
 10
-142.7513723999992
 20
44.50934890000002
 30
0.0
 10
-142.7019465399992
 20
44.56760380000003
 30
0.0
 10
-142.6154163599992
 20
44.61172106000003
 30
0.0
 10
-142.4918097999993
 20
44.64703722000002
 30
0.0
  0
SPLINE
  5
116
330
1F
100
AcDbEntity
  8
0
  6
Continuous
 62
     7
370
    15
100
AcDbSpline
210
0.0
220
0.0
230
1.0
 70
     8
 71
     3
 72
     8
 73
     4
 74
     0
 42
0.000000001
 43
0.00000001
 40
0.2
 40
0.2
 40
0.2
 40
0.2
 40
0.3
 40
0.3
 40
0.3
 40
0.3
 10
-134.6031743199993
 20
47.84577606000003
 30
0.0
 10
-132.1993843599992
 20
47.90263396000002
 30
0.0
 10
-130.4246355599992
 20
47.54259912000002
 30
0.0
 10
-128.8436227199992
 20
47.30563998000003
 30
0.0
  0
SPLINE
  5
117
330
1F
100
AcDbEntity
  8
0
  6
Continuous
 62
     7
370
    15
100
AcDbSpline
210
0.0
220
0.0
230
1.0
 70
     8
 71
     3
 72
     8
 73
     4
 74
     0
 42
0.000000001
 43
0.00000001
 40
0.3
 40
0.3
 40
0.3
 40
0.3
 40
0.4
 40
0.4
 40
0.4
 40
0.4
 10
-128.8436227199992
 20
47.30563998000003
 30
0.0
 10
-127.1665521599993
 20
47.05392852000003
 30
0.0
 10
-125.6339593399992
 20
46.64293112000003
 30
0.0
 10
-123.5451649399992
 20
46.36269292000002
 30
0.0
  0
SPLINE
  5
118
330
1F
100
AcDbEntity
  8
0
  6
Continuous
 62
     7
370
    15
100
AcDbSpline
210
0.0
220
0.0
230
1.0
 70
     8
 71
     3
 72
     8
 73
     4
 74
     0
 42
0.000000001
 43
0.00000001
 40
0.4
 40
0.4
 40
0.4
 40
0.4
 40
0.5
 40
0.5
 40
0.5
 40
0.5
 10
-123.5451649399992
 20
46.36269292000002
 30
0.0
 10
-120.1886209799992
 20
45.91285892000002
 30
0.0
 10
-118.8843538399993
 20
45.83543718000002
 30
0.0
 10
-115.8310426999992
 20
46.41904790000002
 30
0.0
  0
SPLINE
  5
119
330
1F
100
AcDbEntity
  8
0
  6
Continuous
 62
     7
370
    15
100
AcDbSpline
210
0.0
220
0.0
230
1.0
 70
     8
 71
     3
 72
     8
 73
     4
 74
     0
 42
0.000000001
 43
0.00000001
 40
0.5
 40
0.5
 40
0.5
 40
0.5
 40
0.6
 40
0.6
 40
0.6
 40
0.6
 10
-115.8310426999992
 20
46.41904790000002
 30
0.0
 10
-115.7756097399992
 20
46.41983022000003
 30
0.0
 10
-115.7763082399992
 20
46.50496340000003
 30
0.0
 10
-115.8470243799993
 20
46.49342418000003
 30
0.0
  0
SPLINE
  5
11A
330
1F
100
AcDbEntity
  8
0
  6
Continuous
 62
     7
370
    15
100
AcDbSpline
210
0.0
220
0.0
230
1.0
 70
     8
 71
     3
 72
     8
 73
     4
 74
     0
 42
0.000000001
 43
0.00000001
 40
0.6
 40
0.6
 40
0.6
 40
0.6
 40
0.7
 40
0.7
 40
0.7
 40
0.7
 10
-115.8470243799993
 20
46.49342418000003
 30
0.0
 10
-119.6367780399993
 20
46.13970378000002
 30
0.0
 10
-120.4436572999992
 20
46.23400128000003
 30
0.0
 10
-122.9876781199992
 20
46.68878066000003
 30
0.0
  0
SPLINE
  5
11B
330
1F
100
AcDbEntity
  8
0
  6
Continuous
 62
     7
370
    15
100
AcDbSpline
210
0.0
220
0.0
230
1.0
 70
     8
 71
     3
 72
     8
 73
     4
 74
     0
 42
0.000000001
 43
0.00000001
 40
0.7
 40
0.7
 40
0.7
 40
0.7
 40
0.7999999999999999
 40
0.7999999999999999
 40
0.7999999999999999
 40
0.7999999999999999
 10
-122.9876781199992
 20
46.68878066000003
 30
0.0
 10
-125.0329978799992
 20
47.05420792000003
 30
0.0
 10
-126.8460244799992
 20
47.44902806000002
 30
0.0
 10
-128.5969404599992
 20
47.77064540000003
 30
0.0
  0
SPLINE
  5
11C
330
1F
100
AcDbEntity
  8
0
  6
Continuous
 62
     7
370
    15
100
AcDbSpline
210
0.0
220
0.0
230
1.0
 70
     8
 71
     3
 72
     8
 73
     4
 74
     0
 42
0.000000001
 43
0.00000001
 40
0.7999999999999999
 40
0.7999999999999999
 40
0.7999999999999999
 40
0.7999999999999999
 40
0.8999999999999999
 40
0.8999999999999999
 40
0.8999999999999999
 40
0.8999999999999999
 10
-128.5969404599992
 20
47.77064540000003
 30
0.0
 10
-130.7787471199992
 20
48.17136088000003
 30
0.0
 10
-132.8334547199993
 20
48.46397650000003
 30
0.0
 10
-134.8361659799993
 20
48.36501302000003
 30
0.0
  0
SPLINE
  5
11D
330
1F
100
AcDbEntity
  8
0
  6
Continuous
 62
     7
370
    15
100
AcDbSpline
210
0.0
220
0.0
230
1.0
 70
     8
 71
     3
 72
     8
 73
     4
 74
     0
 42
0.000000001
 43
0.00000001
 40
0.8999999999999999
 40
0.8999999999999999
 40
0.8999999999999999
 40
0.8999999999999999
 40
1.0
 40
1.0
 40
1.0
 40
1.0
 10
-134.8361659799993
 20
48.36501302000003
 30
0.0
 10
-136.8519531599992
 20
48.26526722000003
 30
0.0
 10
-139.2248414799992
 20
47.86097542000003
 30
0.0
 10
-142.1669514199992
 20
45.94675014000003
 30
0.0
  0
SPLINE
  5
11E
330
1F
100
AcDbEntity
  8
0
  6
Continuous
 62
     7
370
    15
100
AcDbSpline
210
0.0
220
0.0
230
1.0
 70
     8
 71
     3
 72
     8
 73
     4
 74
     0
 42
0.000000001
 43
0.00000001
 40
0.0
 40
0.0
 40
0.0
 40
0.0
 40
0.1
 40
0.1
 40
0.1
 40
0.1
 10
-142.1669514199992
 20
45.94675014000003
 30
0.0
 10
-142.2179977999992
 20
45.91199278000003
 30
0.0
 10
-142.1822066599992
 20
45.84733962000002
 30
0.0
 10
-142.1190343199993
 20
45.87874418000003
 30
0.0
  0
SPLINE
  5
11F
330
1F
100
AcDbEntity
  8
0
  6
Continuous
 62
     7
370
    15
100
AcDbSpline
210
0.0
220
0.0
230
1.0
 70
     8
 71
     3
 72
     8
 73
     4
 74
     0
 42
0.000000001
 43
0.00000001
 40
0.1
 40
0.1
 40
0.1
 40
0.1
 40
0.2
 40
0.2
 40
0.2
 40
0.2
 10
-142.1190343199993
 20
45.87874418000003
 30
0.0
 10
-139.8257749999992
 20
46.94594042000003
 30
0.0
 10
-137.5814386199992
 20
47.77542314000002
 30
0.0
 10
-134.6031743199993
 20
47.84577606000003
 30
0.0
  0
SPLINE
  5
128
330
1F
100
AcDbEntity
  8
0
  6
Continuous
 62
     7
370
    15
100
AcDbSpline
210
0.0
220
0.0
230
1.0
 70
     8
 71
     3
 72
     8
 73
     4
 74
     0
 42
0.000000001
 43
0.00000001
 40
0.2
 40
0.2
 40
0.2
 40
0.2
 40
0.3
 40
0.3
 40
0.3
 40
0.3
 10
-134.9434835199992
 20
49.39717250000002
 30
0.0
 10
-131.8447698799993
 20
49.58749978000002
 30
0.0
 10
-129.8488200999992
 20
49.19281934000003
 30
0.0
 10
-127.0842967999993
 20
48.70409286000002
 30
0.0
  0
SPLINE
  5
129
330
1F
100
AcDbEntity
  8
0
  6
Continuous
 62
     7
370
    15
100
AcDbSpline
210
0.0
220
0.0
230
1.0
 70
     8
 71
     3
 72
     8
 73
     4
 74
     0
 42
0.000000001
 43
0.00000001
 40
0.3
 40
0.3
 40
0.3
 40
0.3
 40
0.4
 40
0.4
 40
0.4
 40
0.4
 10
-127.0842967999993
 20
48.70409286000002
 30
0.0
 10
-123.9697411799993
 20
48.15294842000003
 30
0.0
 10
-123.4109970599992
 20
47.75030508000003
 30
0.0
 10
-120.4395780599992
 20
47.41228696000003
 30
0.0
  0
SPLINE
  5
12A
330
1F
100
AcDbEntity
  8
0
  6
Continuous
 62
     7
370
    15
100
AcDbSpline
210
0.0
220
0.0
230
1.0
 70
     8
 71
     3
 72
     8
 73
     4
 74
     0
 42
0.000000001
 43
0.00000001
 40
0.4
 40
0.4
 40
0.4
 40
0.4
 40
0.5
 40
0.5
 40
0.5
 40
0.5
 10
-120.4395780599992
 20
47.41228696000003
 30
0.0
 10
-117.3149360999992
 20
47.14819808000003
 30
0.0
 10
-113.6775951399993
 20
47.95443472000003
 30
0.0
 10
-110.6389524999992
 20
49.15526798000002
 30
0.0
  0
SPLINE
  5
12B
330
1F
100
AcDbEntity
  8
0
  6
Continuous
 62
     7
370
    15
100
AcDbSpline
210
0.0
220
0.0
230
1.0
 70
     8
 71
     3
 72
     8
 73
     4
 74
     0
 42
0.000000001
 43
0.00000001
 40
0.5
 40
0.5
 40
0.5
 40
0.5
 40
0.6
 40
0.6
 40
0.6
 40
0.6
 10
-110.6389524999992
 20
49.15526798000002
 30
0.0
 10
-110.5841900999992
 20
49.18147570000001
 30
0.0
 10
-110.6164887399992
 20
49.24777732000002
 30
0.0
 10
-110.6701614799992
 20
49.23227062000003
 30
0.0
  0
SPLINE
  5
12C
330
1F
100
AcDbEntity
  8
0
  6
Continuous
 62
     7
370
    15
100
AcDbSpline
210
0.0
220
0.0
230
1.0
 70
     8
 71
     3
 72
     8
 73
     4
 74
     0
 42
0.000000001
 43
0.00000001
 40
0.6
 40
0.6
 40
0.6
 40
0.6
 40
0.7
 40
0.7
 40
0.7
 40
0.7
 10
-110.6701614799992
 20
49.23227062000003
 30
0.0
 10
-115.9756880799992
 20
47.80568216000002
 30
0.0
 10
-117.6544629799992
 20
47.73647478000002
 30
0.0
 10
-120.3689736799992
 20
47.99383012000003
 30
0.0
  0
SPLINE
  5
12D
330
1F
100
AcDbEntity
  8
0
  6
Continuous
 62
     7
370
    15
100
AcDbSpline
210
0.0
220
0.0
230
1.0
 70
     8
 71
     3
 72
     8
 73
     4
 74
     0
 42
0.000000001
 43
0.00000001
 40
0.7
 40
0.7
 40
0.7
 40
0.7
 40
0.7999999999999999
 40
0.7999999999999999
 40
0.7999999999999999
 40
0.7999999999999999
 10
-120.3689736799992
 20
47.99383012000003
 30
0.0
 10
-122.9213764999993
 20
48.23514790000003
 30
0.0
 10
-124.6605017999993
 20
48.91995730000002
 30
0.0
 10
-127.6142347799992
 20
49.46489906000003
 30
0.0
  0
SPLINE
  5
12E
330
1F
100
AcDbEntity
  8
0
  6
Continuous
 62
     7
370
    15
100
AcDbSpline
210
0.0
220
0.0
230
1.0
 70
     8
 71
     3
 72
     8
 73
     4
 74
     0
 42
0.000000001
 43
0.00000001
 40
0.7999999999999999
 40
0.7999999999999999
 40
0.7999999999999999
 40
0.7999999999999999
 40
0.8999999999999999
 40
0.8999999999999999
 40
0.8999999999999999
 40
0.8999999999999999
 10
-127.6142347799992
 20
49.46489906000003
 30
0.0
 10
-130.0426398799993
 20
49.91344782000002
 30
0.0
 10
-132.6228150599993
 20
50.15526852000003
 30
0.0
 10
-135.8393516799993
 20
49.83845686000003
 30
0.0
  0
SPLINE
  5
12F
330
1F
100
AcDbEntity
  8
0
  6
Continuous
 62
     7
370
    15
100
AcDbSpline
210
0.0
220
0.0
230
1.0
 70
     8
 71
     3
 72
     8
 73
     4
 74
     0
 42
0.000000001
 43
0.00000001
 40
0.8999999999999999
 40
0.8999999999999999
 40
0.8999999999999999
 40
0.8999999999999999
 40
1.0
 40
1.0
 40
1.0
 40
1.0
 10
-135.8393516799993
 20
49.83845686000003
 30
0.0
 10
-139.5912745799993
 20
49.36015200000002
 30
0.0
 10
-142.2107892799992
 20
48.29561006000002
 30
0.0
 10
-144.4671119199992
 20
46.13657450000002
 30
0.0
  0
SPLINE
  5
130
330
1F
100
AcDbEntity
  8
0
  6
Continuous
 62
     7
370
    15
100
AcDbSpline
210
0.0
220
0.0
230
1.0
 70
     8
 71
     3
 72
     8
 73
     4
 74
     0
 42
0.000000001
 43
0.00000001
 40
0.0
 40
0.0
 40
0.0
 40
0.0
 40
0.1
 40
0.1
 40
0.1
 40
0.1
 10
-144.4671119199992
 20
46.13657450000002
 30
0.0
 10
-144.5289431399992
 20
46.07451976000002
 30
0.0
 10
-144.4648208399992
 20
45.99897000000003
 30
0.0
 10
-144.3823419599993
 20
46.05272656000002
 30
0.0
  0
SPLINE
  5
131
330
1F
100
AcDbEntity
  8
0
  6
Continuous
 62
     7
370
    15
100
AcDbSpline
210
0.0
220
0.0
230
1.0
 70
     8
 71
     3
 72
     8
 73
     4
 74
     0
 42
0.000000001
 43
0.00000001
 40
0.1
 40
0.1
 40
0.1
 40
0.1
 40
0.2
 40
0.2
 40
0.2
 40
0.2
 10
-144.3823419599993
 20
46.05272656000002
 30
0.0
 10
-142.2963136199992
 20
47.36568304000003
 30
0.0
 10
-139.9302705999992
 20
49.09019572000002
 30
0.0
 10
-134.9434835199992
 20
49.39717250000002
 30
0.0
  0
SPLINE
  5
132
330
1F
100
AcDbEntity
  8
0
  6
Continuous
 62
     7
370
    15
100
AcDbSpline
210
0.0
220
0.0
230
1.0
 70
     8
 71
     3
 72
     8
 73
     4
 74
     0
 42
0.000000001
 43
0.00000001
 40
0.8974358974358979
 40
0.8974358974358979
 40
0.8974358974358979
 40
0.8974358974358979
 40
0.9230769230769236
 40
0.9230769230769236
 40
0.9230769230769236
 40
0.9230769230769236
 10
-149.3570030799993
 20
40.07680760000003
 30
0.0
 10
-150.1568693999993
 20
40.07680760000003
 30
0.0
 10
-150.8013613799992
 20
40.28686052000003
 30
0.0
 10
-151.2904790199993
 20
40.70699430000003
 30
0.0
  0
SPLINE
  5
133
330
1F
100
AcDbEntity
  8
0
  6
Continuous
 62
     7
370
    15
100
AcDbSpline
210
0.0
220
0.0
230
1.0
 70
     8
 71
     3
 72
     8
 73
     4
 74
     0
 42
0.000000001
 43
0.00000001
 40
0.8717948717948723
 40
0.8717948717948723
 40
0.8717948717948723
 40
0.8717948717948723
 40
0.8974358974358979
 40
0.8974358974358979
 40
0.8974358974358979
 40
0.8974358974358979
 10
-151.2904790199993
 20
40.70699430000003
 30
0.0
 10
-151.8254741399992
 20
41.16596468000003
 30
0.0
 10
-152.0921334999992
 20
41.76790404000003
 30
0.0
 10
-152.0921334999992
 20
42.51108010000003
 30
0.0
  0
SPLINE
  5
134
330
1F
100
AcDbEntity
  8
0
  6
Continuous
 62
     7
370
    15
100
AcDbSpline
210
0.0
220
0.0
230
1.0
 70
     8
 71
     3
 72
     8
 73
     4
 74
     0
 42
0.000000001
 43
0.00000001
 40
0.8461538461538466
 40
0.8461538461538466
 40
0.8461538461538466
 40
0.8461538461538466
 40
0.8717948717948723
 40
0.8717948717948723
 40
0.8717948717948723
 40
0.8717948717948723
 10
-152.0921334999992
 20
42.51108010000003
 30
0.0
 10
-152.0921334999992
 20
43.28071534000003
 30
0.0
 10
-151.8184332599992
 20
43.89855256000003
 30
0.0
 10
-151.2693004999992
 20
44.36811220000003
 30
0.0
  0
SPLINE
  5
135
330
1F
100
AcDbEntity
  8
0
  6
Continuous
 62
     7
370
    15
100
AcDbSpline
210
0.0
220
0.0
230
1.0
 70
     8
 71
     3
 72
     8
 73
     4
 74
     0
 42
0.000000001
 43
0.00000001
 40
0.8205128205128209
 40
0.8205128205128209
 40
0.8205128205128209
 40
0.8205128205128209
 40
0.8461538461538466
 40
0.8461538461538466
 40
0.8461538461538466
 40
0.8461538461538466
 10
-151.2693004999992
 20
44.36811220000003
 30
0.0
 10
-150.7837032999992
 20
44.78117716000003
 30
0.0
 10
-150.1710070399992
 20
44.98773758000003
 30
0.0
 10
-149.4346762799992
 20
44.98773758000003
 30
0.0
  0
SPLINE
  5
136
330
1F
100
AcDbEntity
  8
0
  6
Continuous
 62
     7
370
    15
100
AcDbSpline
210
0.0
220
0.0
230
1.0
 70
     8
 71
     3
 72
     8
 73
     4
 74
     0
 42
0.000000001
 43
0.00000001
 40
0.7948717948717953
 40
0.7948717948717953
 40
0.7948717948717953
 40
0.7948717948717953
 40
0.8205128205128209
 40
0.8205128205128209
 40
0.8205128205128209
 40
0.8205128205128209
 10
-149.4346762799992
 20
44.98773758000003
 30
0.0
 10
-149.0727135799992
 20
44.98773758000003
 30
0.0
 10
-148.6877841999992
 20
44.93124290000002
 30
0.0
 10
-148.2798881399993
 20
44.82001376000003
 30
0.0
  0
SPLINE
  5
137
330
1F
100
AcDbEntity
  8
0
  6
Continuous
 62
     7
370
    15
100
AcDbSpline
210
0.0
220
0.0
230
1.0
 70
     8
 71
     3
 72
     8
 73
     4
 74
     0
 42
0.000000001
 43
0.00000001
 40
0.7692307692307696
 40
0.7692307692307696
 40
0.7692307692307696
 40
0.7692307692307696
 40
0.7948717948717953
 40
0.7948717948717953
 40
0.7948717948717953
 40
0.7948717948717953
 10
-148.2798881399993
 20
44.82001376000003
 30
0.0
 10
-147.8737802399993
 20
44.70705234000003
 30
0.0
 10
-147.5647638399992
 20
44.57288446000003
 30
0.0
 10
-147.3546550399992
 20
44.41401762000002
 30
0.0
  0
SPLINE
  5
138
330
1F
100
AcDbEntity
  8
0
  6
Continuous
 62
     7
370
    15
100
AcDbSpline
210
0.0
220
0.0
230
1.0
 70
     8
 71
     3
 72
     8
 73
     4
 74
     0
 42
0.000000001
 43
0.00000001
 40
0.743589743589744
 40
0.743589743589744
 40
0.743589743589744
 40
0.743589743589744
 40
0.7692307692307696
 40
0.7692307692307696
 40
0.7692307692307696
 40
0.7692307692307696
 10
-147.3546550399992
 20
44.41401762000002
 30
0.0
 10
-147.2592958199992
 20
44.34165302000002
 30
0.0
 10
-147.1957043799992
 20
44.27984974000002
 30
0.0
 10
-147.1692451999992
 20
44.23042388000003
 30
0.0
  0
SPLINE
  5
139
330
1F
100
AcDbEntity
  8
0
  6
Continuous
 62
     7
370
    15
100
AcDbSpline
210
0.0
220
0.0
230
1.0
 70
     8
 71
     3
 72
     8
 73
     4
 74
     0
 42
0.000000001
 43
0.00000001
 40
0.7179487179487183
 40
0.7179487179487183
 40
0.7179487179487183
 40
0.7179487179487183
 40
0.743589743589744
 40
0.743589743589744
 40
0.743589743589744
 40
0.743589743589744
 10
-147.1692451999992
 20
44.23042388000003
 30
0.0
 10
-147.1409978599992
 20
44.18099802000002
 30
0.0
 10
-147.1250720599992
 20
44.09804416000003
 30
0.0
 10
-147.1215516199992
 20
43.98505480000003
 30
0.0
  0
SPLINE
  5
13D
330
1F
100
AcDbEntity
  8
0
  6
Continuous
 62
     7
370
    15
100
AcDbSpline
210
0.0
220
0.0
230
1.0
 70
     8
 71
     3
 72
     8
 73
     4
 74
     0
 42
0.000000001
 43
0.00000001
 40
0.6153846153846156
 40
0.6153846153846156
 40
0.6153846153846156
 40
0.6153846153846156
 40
0.6410256410256413
 40
0.6410256410256413
 40
0.6410256410256413
 40
0.6410256410256413
 10
-146.2898895799993
 20
45.67617918000003
 30
0.0
 10
-146.3870090199992
 20
45.59674576000003
 30
0.0
 10
-146.4717789799992
 20
45.55790916000003
 30
0.0
 10
-146.5441715199993
 20
45.55790916000003
 30
0.0
  0
SPLINE
  5
13E
330
1F
100
AcDbEntity
  8
0
  6
Continuous
 62
     7
370
    15
100
AcDbSpline
210
0.0
220
0.0
230
1.0
 70
     8
 71
     3
 72
     8
 73
     4
 74
     0
 42
0.000000001
 43
0.00000001
 40
0.58974358974359
 40
0.58974358974359
 40
0.58974358974359
 40
0.58974358974359
 40
0.6153846153846156
 40
0.6153846153846156
 40
0.6153846153846156
 40
0.6153846153846156
 10
-146.5441715199993
 20
45.55790916000003
 30
0.0
 10
-146.6430511799993
 20
45.55790916000003
 30
0.0
 10
-146.8107749999992
 20
45.60378664000002
 30
0.0
 10
-147.0456386399992
 20
45.69735770000003
 30
0.0
  0
SPLINE
  5
13F
330
1F
100
AcDbEntity
  8
0
  6
Continuous
 62
     7
370
    15
100
AcDbSpline
210
0.0
220
0.0
230
1.0
 70
     8
 71
     3
 72
     8
 73
     4
 74
     0
 42
0.000000001
 43
0.00000001
 40
0.5641025641025643
 40
0.5641025641025643
 40
0.5641025641025643
 40
0.5641025641025643
 40
0.58974358974359
 40
0.58974358974359
 40
0.58974358974359
 40
0.58974358974359
 10
-147.0456386399992
 20
45.69735770000003
 30
0.0
 10
-147.4994121799993
 20
45.87212240000003
 30
0.0
 10
-147.9055480199993
 20
45.99746124000002
 30
0.0
 10
-148.2622300599992
 20
46.07158606000003
 30
0.0
  0
SPLINE
  5
140
330
1F
100
AcDbEntity
  8
0
  6
Continuous
 62
     7
370
    15
100
AcDbSpline
210
0.0
220
0.0
230
1.0
 70
     8
 71
     3
 72
     8
 73
     4
 74
     0
 42
0.000000001
 43
0.00000001
 40
0.5384615384615387
 40
0.5384615384615387
 40
0.5384615384615387
 40
0.5384615384615387
 40
0.5641025641025643
 40
0.5641025641025643
 40
0.5641025641025643
 40
0.5641025641025643
 10
-148.2622300599992
 20
46.07158606000003
 30
0.0
 10
-148.6206723199992
 20
46.14573882000003
 30
0.0
 10
-149.0002930999992
 20
46.18278726000003
 30
0.0
 10
-149.4028805599993
 20
46.18278726000003
 30
0.0
  0
SPLINE
  5
141
330
1F
100
AcDbEntity
  8
0
  6
Continuous
 62
     7
370
    15
100
AcDbSpline
210
0.0
220
0.0
230
1.0
 70
     8
 71
     3
 72
     8
 73
     4
 74
     0
 42
0.000000001
 43
0.00000001
 40
0.512820512820513
 40
0.512820512820513
 40
0.512820512820513
 40
0.512820512820513
 40
0.5384615384615387
 40
0.5384615384615387
 40
0.5384615384615387
 40
0.5384615384615387
 10
-149.4028805599993
 20
46.18278726000003
 30
0.0
 10
-150.6724325388878
 20
46.17250708193425
 30
0.0
 10
-151.6868983168486
 20
45.84654836393532
 30
0.0
 10
-152.4480520828277
 20
45.20662907632615
 30
0.0
  0
SPLINE
  5
142
330
1F
100
AcDbEntity
  8
0
  6
Continuous
 62
     7
370
    15
100
AcDbSpline
210
0.0
220
0.0
230
1.0
 70
     8
 71
     3
 72
     8
 73
     4
 74
     0
 42
0.000000001
 43
0.00000001
 40
0.4871794871794873
 40
0.4871794871794873
 40
0.4871794871794873
 40
0.4871794871794873
 40
0.512820512820513
 40
0.512820512820513
 40
0.512820512820513
 40
0.512820512820513
 10
-152.4480520828277
 20
45.20662907632615
 30
0.0
 10
-153.2569195823224
 20
44.53994334498723
 30
0.0
 10
-153.6621102151097
 20
43.64082927104632
 30
0.0
 10
-153.6653790199992
 20
42.51108010000002
 30
0.0
  0
SPLINE
  5
143
330
1F
100
AcDbEntity
  8
0
  6
Continuous
 62
     7
370
    15
100
AcDbSpline
210
0.0
220
0.0
230
1.0
 70
     8
 71
     3
 72
     8
 73
     4
 74
     0
 42
0.000000001
 43
0.00000001
 40
0.4615384615384617
 40
0.4615384615384617
 40
0.4615384615384617
 40
0.4615384615384617
 40
0.4871794871794873
 40
0.4871794871794873
 40
0.4871794871794873
 40
0.4871794871794873
 10
-153.6653790199992
 20
42.51108010000003
 30
0.0
 10
-153.6683671820606
 20
41.29837602148304
 30
0.0
 10
-153.21693080346
 20
40.3493124624571
 30
0.0
 10
-152.3127741501783
 20
39.66392156240161
 30
0.0
  0
SPLINE
  5
144
330
1F
100
AcDbEntity
  8
0
  6
Continuous
 62
     7
370
    15
100
AcDbSpline
210
0.0
220
0.0
230
1.0
 70
     8
 71
     3
 72
     8
 73
     4
 74
     0
 42
0.000000001
 43
0.00000001
 40
0.435897435897436
 40
0.435897435897436
 40
0.435897435897436
 40
0.435897435897436
 40
0.4615384615384617
 40
0.4615384615384617
 40
0.4615384615384617
 40
0.4615384615384617
 10
-152.3127741501783
 20
39.66392156240161
 30
0.0
 10
-151.5876459749906
 20
39.12833373781906
 30
0.0
 10
-150.6547442389295
 20
38.86640618265125
 30
0.0
 10
-149.5123774199993
 20
38.87642138000003
 30
0.0
  0
SPLINE
  5
145
330
1F
100
AcDbEntity
  8
0
  6
Continuous
 62
     7
370
    15
100
AcDbSpline
210
0.0
220
0.0
230
1.0
 70
     8
 71
     3
 72
     8
 73
     4
 74
     0
 42
0.000000001
 43
0.00000001
 40
0.4102564102564104
 40
0.4102564102564104
 40
0.4102564102564104
 40
0.4102564102564104
 40
0.435897435897436
 40
0.435897435897436
 40
0.435897435897436
 40
0.435897435897436
 10
-149.5123774199993
 20
38.87642138000003
 30
0.0
 10
-148.2551612399992
 20
38.87642138000003
 30
0.0
 10
-146.9555880199992
 20
39.25947878000002
 30
0.0
 10
-145.6136018799992
 20
40.02383336000003
 30
0.0
  0
SPLINE
  5
147
330
1F
100
AcDbEntity
  8
0
  6
Continuous
 62
     7
370
    15
100
AcDbSpline
210
0.0
220
0.0
230
1.0
 70
     8
 71
     3
 72
     8
 73
     4
 74
     0
 42
0.000000001
 43
0.00000001
 40
0.358974358974359
 40
0.358974358974359
 40
0.358974358974359
 40
0.358974358974359
 40
0.3846153846153847
 40
0.3846153846153847
 40
0.3846153846153847
 40
0.3846153846153847
 10
-145.6136018799992
 20
40.15272058000002
 30
0.0
 10
-145.7407568199993
 20
40.18800880000002
 30
0.0
 10
-145.8290472199993
 20
40.23215400000003
 30
0.0
 10
-145.8767128599992
 20
40.28686052000003
 30
0.0
  0
SPLINE
  5
148
330
1F
100
AcDbEntity
  8
0
  6
Continuous
 62
     7
370
    15
100
AcDbSpline
210
0.0
220
0.0
230
1.0
 70
     8
 71
     3
 72
     8
 73
     4
 74
     0
 42
0.000000001
 43
0.00000001
 40
0.3333333333333334
 40
0.3333333333333334
 40
0.3333333333333334
 40
0.3333333333333334
 40
0.358974358974359
 40
0.358974358974359
 40
0.358974358974359
 40
0.358974358974359
 10
-145.8767128599992
 20
40.28686052000003
 30
0.0
 10
-145.9244064399992
 20
40.34159498000003
 30
0.0
 10
-145.9491053999992
 20
40.42278862000003
 30
0.0
 10
-145.9491053999992
 20
40.53046938000002
 30
0.0
  0
SPLINE
  5
14A
330
1F
100
AcDbEntity
  8
0
  6
Continuous
 62
     7
370
    15
100
AcDbSpline
210
0.0
220
0.0
230
1.0
 70
     8
 71
     3
 72
     8
 73
     4
 74
     0
 42
0.000000001
 43
0.00000001
 40
0.282051282051282
 40
0.282051282051282
 40
0.282051282051282
 40
0.282051282051282
 40
0.3076923076923077
 40
0.3076923076923077
 40
0.3076923076923077
 40
0.3076923076923077
 10
-145.9491053999992
 20
41.97798490000003
 30
0.0
 10
-145.9491053999992
 20
42.08566566000002
 30
0.0
 10
-145.9244064399992
 20
42.16685930000003
 30
0.0
 10
-145.8749526399992
 20
42.22156582000003
 30
0.0
  0
SPLINE
  5
14B
330
1F
100
AcDbEntity
  8
0
  6
Continuous
 62
     7
370
    15
100
AcDbSpline
210
0.0
220
0.0
230
1.0
 70
     8
 71
     3
 72
     8
 73
     4
 74
     0
 42
0.000000001
 43
0.00000001
 40
0.2564102564102564
 40
0.2564102564102564
 40
0.2564102564102564
 40
0.2564102564102564
 40
0.282051282051282
 40
0.282051282051282
 40
0.282051282051282
 40
0.282051282051282
 10
-145.8749526399992
 20
42.22156582000003
 30
0.0
 10
-145.8237665599992
 20
42.27630028000003
 30
0.0
 10
-145.7372363799992
 20
42.32044548000002
 30
0.0
 10
-145.6136018799992
 20
42.35573370000003
 30
0.0
  0
SPLINE
  5
14E
330
1F
100
AcDbEntity
  8
0
  6
Continuous
 62
     7
370
    15
100
AcDbSpline
210
0.0
220
0.0
230
1.0
 70
     8
 71
     3
 72
     8
 73
     4
 74
     0
 42
0.000000001
 43
0.00000001
 40
0.1794871794871795
 40
0.1794871794871795
 40
0.1794871794871795
 40
0.1794871794871795
 40
0.2051282051282051
 40
0.2051282051282051
 40
0.2051282051282051
 40
0.2051282051282051
 10
-148.9614564999993
 20
42.52166936000003
 30
0.0
 10
-149.0691651999992
 20
42.52166936000003
 30
0.0
 10
-149.1486544999993
 20
42.54460810000003
 30
0.0
 10
-149.2016007999993
 20
42.59227374000002
 30
0.0
  0
SPLINE
  5
14F
330
1F
100
AcDbEntity
  8
0
  6
Continuous
 62
     7
370
    15
100
AcDbSpline
210
0.0
220
0.0
230
1.0
 70
     8
 71
     3
 72
     8
 73
     4
 74
     0
 42
0.000000001
 43
0.00000001
 40
0.1538461538461538
 40
0.1538461538461538
 40
0.1538461538461538
 40
0.1538461538461538
 40
0.1794871794871795
 40
0.1794871794871795
 40
0.1794871794871795
 40
0.1794871794871795
 10
-149.2016007999993
 20
42.59227374000002
 30
0.0
 10
-149.2563352599992
 20
42.63817916000003
 30
0.0
 10
-149.2987202399992
 20
42.72644162000002
 30
0.0
 10
-149.3340084599992
 20
42.85354068000002
 30
0.0
  0
SPLINE
  5
153
330
1F
100
AcDbEntity
  8
0
  6
Continuous
 62
     7
370
    15
100
AcDbSpline
210
0.0
220
0.0
230
1.0
 70
     8
 71
     3
 72
     8
 73
     4
 74
     0
 42
0.000000001
 43
0.00000001
 40
0.0512820512820513
 40
0.0512820512820513
 40
0.0512820512820513
 40
0.0512820512820513
 40
0.0769230769230769
 40
0.0769230769230769
 40
0.0769230769230769
 40
0.0769230769230769
 10
-149.3340084599992
 20
41.20656150000002
 30
0.0
 10
-149.3004804599992
 20
41.33190034000003
 30
0.0
 10
-149.2563352599992
 20
41.41661442000002
 30
0.0
 10
-149.2016007999993
 20
41.46604028000003
 30
0.0
  0
SPLINE
  5
154
330
1F
100
AcDbEntity
  8
0
  6
Continuous
 62
     7
370
    15
100
AcDbSpline
210
0.0
220
0.0
230
1.0
 70
     8
 71
     3
 72
     8
 73
     4
 74
     0
 42
0.000000001
 43
0.00000001
 40
0.0256410256410256
 40
0.0256410256410256
 40
0.0256410256410256
 40
0.0256410256410256
 40
0.0512820512820513
 40
0.0512820512820513
 40
0.0512820512820513
 40
0.0512820512820513
 10
-149.2016007999993
 20
41.46604028000003
 30
0.0
 10
-149.1486544999993
 20
41.51370592000003
 30
0.0
 10
-149.0691651999992
 20
41.53843282000003
 30
0.0
 10
-148.9614564999993
 20
41.53843282000003
 30
0.0
  0
SPLINE
  5
157
330
1F
100
AcDbEntity
  8
0
  6
Continuous
 62
     7
370
    15
100
AcDbSpline
210
0.0
220
0.0
230
1.0
 70
     8
 71
     3
 72
     8
 73
     4
 74
     0
 42
0.000000001
 43
0.00000001
 40
0.9487179487179492
 40
0.9487179487179492
 40
0.9487179487179492
 40
0.9487179487179492
 40
0.9743589743589749
 40
0.9743589743589749
 40
0.9743589743589749
 40
0.9743589743589749
 10
-147.2221914999992
 20
40.57813502000003
 30
0.0
 10
-147.4976519599992
 20
40.42278862000003
 30
0.0
 10
-147.8260866599992
 20
40.30099816000003
 30
0.0
 10
-148.2039472199992
 20
40.21094754000002
 30
0.0
  0
SPLINE
  5
158
330
1F
100
AcDbEntity
  8
0
  6
Continuous
 62
     7
370
    15
100
AcDbSpline
210
0.0
220
0.0
230
1.0
 70
     8
 71
     3
 72
     8
 73
     4
 74
     0
 42
0.000000001
 43
0.00000001
 40
0.9230769230769236
 40
0.9230769230769236
 40
0.9230769230769236
 40
0.9230769230769236
 40
0.9487179487179492
 40
0.9487179487179492
 40
0.9487179487179492
 40
0.9487179487179492
 10
-148.2039472199992
 20
40.21094754000002
 30
0.0
 10
-148.5835959399993
 20
40.12092486000002
 30
0.0
 10
-148.9685253199992
 20
40.07680760000003
 30
0.0
 10
-149.3570030799993
 20
40.07680760000003
 30
0.0
  0
SPLINE
  5
159
330
1F
100
AcDbEntity
  8
0
  6
Continuous
 62
     7
370
    15
100
AcDbSpline
210
0.0
220
0.0
230
1.0
 70
     8
 71
     3
 72
     8
 73
     4
 74
     0
 42
0.000000001
 43
0.00000001
 40
0.6666666666666666
 40
0.6666666666666666
 40
0.6666666666666666
 40
0.6666666666666666
 40
0.7333333333333333
 40
0.7333333333333333
 40
0.7333333333333333
 40
0.7333333333333333
 10
-138.0756692799993
 20
39.00000000000003
 30
0.0
 10
-137.5371257799992
 20
39.00000000000003
 30
0.0
 10
-137.0886049599993
 20
39.05118608000002
 30
0.0
 10
-136.7284304199993
 20
39.15179802000002
 30
0.0
  0
SPLINE
  5
15A
330
1F
100
AcDbEntity
  8
0
  6
Continuous
 62
     7
370
    15
100
AcDbSpline
210
0.0
220
0.0
230
1.0
 70
     8
 71
     3
 72
     8
 73
     4
 74
     0
 42
0.000000001
 43
0.00000001
 40
0.6
 40
0.6
 40
0.6
 40
0.6
 40
0.6666666666666666
 40
0.6666666666666666
 40
0.6666666666666666
 40
0.6666666666666666
 10
-136.7284304199993
 20
39.15179802000002
 30
0.0
 10
-136.3681999999992
 20
39.25419812000003
 30
0.0
 10
-136.0539029399993
 20
39.41837356000003
 30
0.0
 10
-135.7890596799992
 20
39.64608456000003
 30
0.0
  0
SPLINE
  5
15B
330
1F
100
AcDbEntity
  8
0
  6
Continuous
 62
     7
370
    15
100
AcDbSpline
210
0.0
220
0.0
230
1.0
 70
     8
 71
     3
 72
     8
 73
     4
 74
     0
 42
0.000000001
 43
0.00000001
 40
0.5333333333333333
 40
0.5333333333333333
 40
0.5333333333333333
 40
0.5333333333333333
 40
0.6
 40
0.6
 40
0.6
 40
0.6
 10
-135.7890596799992
 20
39.64608456000003
 30
0.0
 10
-135.1993021599992
 20
40.15624102000002
 30
0.0
 10
-134.9044233999992
 20
40.90645796000003
 30
0.0
 10
-134.9044233999992
 20
41.89676332000003
 30
0.0
  0
SPLINE
  5
15C
330
1F
100
AcDbEntity
  8
0
  6
Continuous
 62
     7
370
    15
100
AcDbSpline
210
0.0
220
0.0
230
1.0
 70
     8
 71
     3
 72
     8
 73
     4
 74
     0
 42
0.000000001
 43
0.00000001
 40
0.4666666666666666
 40
0.4666666666666666
 40
0.4666666666666666
 40
0.4666666666666666
 40
0.5333333333333333
 40
0.5333333333333333
 40
0.5333333333333333
 40
0.5333333333333333
 10
-134.9044233999992
 20
41.89676332000003
 30
0.0
 10
-134.9044233999992
 20
42.42988646000003
 30
0.0
 10
-134.9927137999993
 20
42.89765794000003
 30
0.0
 10
-135.1674784999992
 20
43.29661320000003
 30
0.0
  0
SPLINE
  5
15D
330
1F
100
AcDbEntity
  8
0
  6
Continuous
 62
     7
370
    15
100
AcDbSpline
210
0.0
220
0.0
230
1.0
 70
     8
 71
     3
 72
     8
 73
     4
 74
     0
 42
0.000000001
 43
0.00000001
 40
0.4
 40
0.4
 40
0.4
 40
0.4
 40
0.4666666666666666
 40
0.4666666666666666
 40
0.4666666666666666
 40
0.4666666666666666
 10
-135.1674784999992
 20
43.29661320000003
 30
0.0
 10
-135.4200002199992
 20
43.87033316000002
 30
0.0
 10
-135.8314167199992
 20
44.27984974000002
 30
0.0
 10
-136.4053043199992
 20
44.52876720000002
 30
0.0
  0
SPLINE
  5
15E
330
1F
100
AcDbEntity
  8
0
  6
Continuous
 62
     7
370
    15
100
AcDbSpline
210
0.0
220
0.0
230
1.0
 70
     8
 71
     3
 72
     8
 73
     4
 74
     0
 42
0.000000001
 43
0.00000001
 40
0.3333333333333333
 40
0.3333333333333333
 40
0.3333333333333333
 40
0.3333333333333333
 40
0.4
 40
0.4
 40
0.4
 40
0.4
 10
-136.4053043199992
 20
44.52876720000002
 30
0.0
 10
-136.8114122199992
 20
44.70353190000003
 30
0.0
 10
-137.3693740199992
 20
44.79179436000003
 30
0.0
 10
-138.0756692799993
 20
44.79179436000003
 30
0.0
  0
SPLINE
  5
161
330
1F
100
AcDbEntity
  8
0
  6
Continuous
 62
     7
370
    15
100
AcDbSpline
210
0.0
220
0.0
230
1.0
 70
     8
 71
     3
 72
     8
 73
     4
 74
     0
 42
0.000000001
 43
0.00000001
 40
0.1333333333333333
 40
0.1333333333333333
 40
0.1333333333333333
 40
0.1333333333333333
 40
0.2
 40
0.2
 40
0.2
 40
0.2
 10
-141.4747099799993
 20
44.64703722000002
 30
0.0
 10
-141.3493711399993
 20
44.60996084000003
 30
0.0
 10
-141.2646011799992
 20
44.56229520000002
 30
0.0
 10
-141.2151473799993
 20
44.50758868000002
 30
0.0
  0
SPLINE
  5
162
330
1F
100
AcDbEntity
  8
0
  6
Continuous
 62
     7
370
    15
100
AcDbSpline
210
0.0
220
0.0
230
1.0
 70
     8
 71
     3
 72
     8
 73
     4
 74
     0
 42
0.000000001
 43
0.00000001
 40
0.0666666666666667
 40
0.0666666666666667
 40
0.0666666666666667
 40
0.0666666666666667
 40
0.1333333333333333
 40
0.1333333333333333
 40
0.1333333333333333
 40
0.1333333333333333
 10
-141.2151473799993
 20
44.50758868000002
 30
0.0
 10
-141.1674817399992
 20
44.45285422000003
 30
0.0
 10
-141.1427827799993
 20
44.37166058000002
 30
0.0
 10
-141.1427827799993
 20
44.26397982000003
 30
0.0
  0
SPLINE
  5
164
330
1F
100
AcDbEntity
  8
0
  6
Continuous
 62
     7
370
    15
100
AcDbSpline
210
0.0
220
0.0
230
1.0
 70
     8
 71
     3
 72
     8
 73
     4
 74
     0
 42
0.000000001
 43
0.00000001
 40
0.9333333333333332
 40
0.9333333333333332
 40
0.9333333333333332
 40
0.9333333333333332
 40
1.0
 40
1.0
 40
1.0
 40
1.0
 10
-141.1427827799993
 20
39.52781454000002
 30
0.0
 10
-141.1427827799993
 20
39.42013378000003
 30
0.0
 10
-141.1674817399992
 20
39.33715198000002
 30
0.0
 10
-141.2186678199992
 20
39.27889708000003
 30
0.0
  0
SPLINE
  5
165
330
1F
100
AcDbEntity
  8
0
  6
Continuous
 62
     7
370
    15
100
AcDbSpline
210
0.0
220
0.0
230
1.0
 70
     8
 71
     3
 72
     8
 73
     4
 74
     0
 42
0.000000001
 43
0.00000001
 40
0.8666666666666666
 40
0.8666666666666666
 40
0.8666666666666666
 40
0.8666666666666666
 40
0.9333333333333332
 40
0.9333333333333332
 40
0.9333333333333332
 40
0.9333333333333332
 10
-141.2186678199992
 20
39.27889708000003
 30
0.0
 10
-141.2681216199992
 20
39.22064218000002
 30
0.0
 10
-141.3528915799992
 20
39.17652492000003
 30
0.0
 10
-141.4747099799993
 20
39.14475714000002
 30
0.0
  0
SPLINE
  5
169
330
1F
100
AcDbEntity
  8
0
  6
Continuous
 62
     7
370
    15
100
AcDbSpline
210
0.0
220
0.0
230
1.0
 70
     8
 71
     3
 72
     8
 73
     4
 74
     0
 42
0.000000001
 43
0.00000001
 40
0.7931034482758619
 40
0.7931034482758619
 40
0.7931034482758619
 40
0.7931034482758619
 40
0.8275862068965515
 40
0.8275862068965515
 40
0.8275862068965515
 40
0.8275862068965515
 10
-122.4118626599992
 20
44.64703722000002
 30
0.0
 10
-122.2847077199993
 20
44.60996084000003
 30
0.0
 10
-122.1964173199993
 20
44.56229520000002
 30
0.0
 10
-122.1505118999993
 20
44.50758868000002
 30
0.0
  0
SPLINE
  5
16A
330
1F
100
AcDbEntity
  8
0
  6
Continuous
 62
     7
370
    15
100
AcDbSpline
210
0.0
220
0.0
230
1.0
 70
     8
 71
     3
 72
     8
 73
     4
 74
     0
 42
0.000000001
 43
0.00000001
 40
0.7586206896551723
 40
0.7586206896551723
 40
0.7586206896551723
 40
0.7586206896551723
 40
0.7931034482758619
 40
0.7931034482758619
 40
0.7931034482758619
 40
0.7931034482758619
 10
-122.1505118999993
 20
44.50758868000002
 30
0.0
 10
-122.1028183199993
 20
44.45285422000003
 30
0.0
 10
-122.0798795799992
 20
44.37166058000002
 30
0.0
 10
-122.0798795799992
 20
44.26397982000003
 30
0.0
  0
SPLINE
  5
16C
330
1F
100
AcDbEntity
  8
0
  6
Continuous
 62
     7
370
    15
100
AcDbSpline
210
0.0
220
0.0
230
1.0
 70
     8
 71
     3
 72
     8
 73
     4
 74
     0
 42
0.000000001
 43
0.00000001
 40
0.689655172413793
 40
0.689655172413793
 40
0.689655172413793
 40
0.689655172413793
 40
0.7241379310344827
 40
0.7241379310344827
 40
0.7241379310344827
 40
0.7241379310344827
 10
-122.0798795799992
 20
41.47665748000003
 30
0.0
 10
-122.0798795799992
 20
41.15361520000003
 30
0.0
 10
-122.1081548599993
 20
40.90469774000003
 30
0.0
 10
-122.1628613799993
 20
40.73348142000003
 30
0.0
  0
SPLINE
  5
16D
330
1F
100
AcDbEntity
  8
0
  6
Continuous
 62
     7
370
    15
100
AcDbSpline
210
0.0
220
0.0
230
1.0
 70
     8
 71
     3
 72
     8
 73
     4
 74
     0
 42
0.000000001
 43
0.00000001
 40
0.6551724137931034
 40
0.6551724137931034
 40
0.6551724137931034
 40
0.6551724137931034
 40
0.689655172413793
 40
0.689655172413793
 40
0.689655172413793
 40
0.689655172413793
 10
-122.1628613799993
 20
40.73348142000003
 30
0.0
 10
-122.2176237799992
 20
40.56047694000003
 30
0.0
 10
-122.3147432199992
 20
40.41926818000003
 30
0.0
 10
-122.4524594799993
 20
40.30803904000003
 30
0.0
  0
SPLINE
  5
16E
330
1F
100
AcDbEntity
  8
0
  6
Continuous
 62
     7
370
    15
100
AcDbSpline
210
0.0
220
0.0
230
1.0
 70
     8
 71
     3
 72
     8
 73
     4
 74
     0
 42
0.000000001
 43
0.00000001
 40
0.6206896551724138
 40
0.6206896551724138
 40
0.6206896551724138
 40
0.6206896551724138
 40
0.6551724137931034
 40
0.6551724137931034
 40
0.6551724137931034
 40
0.6551724137931034
 10
-122.4524594799993
 20
40.30803904000003
 30
0.0
 10
-122.7349887599993
 20
40.08387642000002
 30
0.0
 10
-123.1446170999992
 20
39.97264728000003
 30
0.0
 10
-123.6796401599993
 20
39.97264728000003
 30
0.0
  0
SPLINE
  5
16F
330
1F
100
AcDbEntity
  8
0
  6
Continuous
 62
     7
370
    15
100
AcDbSpline
210
0.0
220
0.0
230
1.0
 70
     8
 71
     3
 72
     8
 73
     4
 74
     0
 42
0.000000001
 43
0.00000001
 40
0.5862068965517242
 40
0.5862068965517242
 40
0.5862068965517242
 40
0.5862068965517242
 40
0.6206896551724138
 40
0.6206896551724138
 40
0.6206896551724138
 40
0.6206896551724138
 10
-123.6796401599993
 20
39.97264728000003
 30
0.0
 10
-124.2128750599993
 20
39.97264728000003
 30
0.0
 10
-124.6225313399992
 20
40.08387642000002
 30
0.0
 10
-124.9050606199992
 20
40.30803904000003
 30
0.0
  0
SPLINE
  5
170
330
1F
100
AcDbEntity
  8
0
  6
Continuous
 62
     7
370
    15
100
AcDbSpline
210
0.0
220
0.0
230
1.0
 70
     8
 71
     3
 72
     8
 73
     4
 74
     0
 42
0.000000001
 43
0.00000001
 40
0.5517241379310346
 40
0.5517241379310346
 40
0.5517241379310346
 40
0.5517241379310346
 40
0.5862068965517242
 40
0.5862068965517242
 40
0.5862068965517242
 40
0.5862068965517242
 10
-124.9050606199992
 20
40.30803904000003
 30
0.0
 10
-125.0463252599993
 20
40.41926818000003
 30
0.0
 10
-125.1452049199993
 20
40.56047694000003
 30
0.0
 10
-125.2034598199993
 20
40.73348142000003
 30
0.0
  0
SPLINE
  5
171
330
1F
100
AcDbEntity
  8
0
  6
Continuous
 62
     7
370
    15
100
AcDbSpline
210
0.0
220
0.0
230
1.0
 70
     8
 71
     3
 72
     8
 73
     4
 74
     0
 42
0.000000001
 43
0.00000001
 40
0.517241379310345
 40
0.517241379310345
 40
0.517241379310345
 40
0.517241379310345
 40
0.5517241379310346
 40
0.5517241379310346
 40
0.5517241379310346
 40
0.5517241379310346
 10
-125.2034598199993
 20
40.73348142000003
 30
0.0
 10
-125.2599824399992
 20
40.90469774000003
 30
0.0
 10
-125.2882297799993
 20
41.15361520000003
 30
0.0
 10
-125.2882297799993
 20
41.47665748000003
 30
0.0
  0
SPLINE
  5
173
330
1F
100
AcDbEntity
  8
0
  6
Continuous
 62
     7
370
    15
100
AcDbSpline
210
0.0
220
0.0
230
1.0
 70
     8
 71
     3
 72
     8
 73
     4
 74
     0
 42
0.000000001
 43
0.00000001
 40
0.4482758620689656
 40
0.4482758620689656
 40
0.4482758620689656
 40
0.4482758620689656
 40
0.4827586206896553
 40
0.4827586206896553
 40
0.4827586206896553
 40
0.4827586206896553
 10
-125.2882297799993
 20
44.26397982000003
 30
0.0
 10
-125.2882297799993
 20
44.37166058000002
 30
0.0
 10
-125.2635028799992
 20
44.45285422000003
 30
0.0
 10
-125.2158372399992
 20
44.50934890000002
 30
0.0
  0
SPLINE
  5
174
330
1F
100
AcDbEntity
  8
0
  6
Continuous
 62
     7
370
    15
100
AcDbSpline
210
0.0
220
0.0
230
1.0
 70
     8
 71
     3
 72
     8
 73
     4
 74
     0
 42
0.000000001
 43
0.00000001
 40
0.413793103448276
 40
0.413793103448276
 40
0.413793103448276
 40
0.413793103448276
 40
0.4482758620689656
 40
0.4482758620689656
 40
0.4482758620689656
 40
0.4482758620689656
 10
-125.2158372399992
 20
44.50934890000002
 30
0.0
 10
-125.1681715999993
 20
44.56760380000003
 30
0.0
 10
-125.0798811999992
 20
44.61172106000003
 30
0.0
 10
-124.9527541999992
 20
44.64703722000002
 30
0.0
  0
SPLINE
  5
178
330
1F
100
AcDbEntity
  8
0
  6
Continuous
 62
     7
370
    15
100
AcDbSpline
210
0.0
220
0.0
230
1.0
 70
     8
 71
     3
 72
     8
 73
     4
 74
     0
 42
0.000000001
 43
0.00000001
 40
0.2758620689655173
 40
0.2758620689655173
 40
0.2758620689655173
 40
0.2758620689655173
 40
0.310344827586207
 40
0.310344827586207
 40
0.310344827586207
 40
0.310344827586207
 10
-127.0062883199992
 20
44.64703722000002
 30
0.0
 10
-126.8809215399992
 20
44.60996084000003
 30
0.0
 10
-126.7961795199992
 20
44.56229520000002
 30
0.0
 10
-126.7467536599992
 20
44.50758868000002
 30
0.0
  0
SPLINE
  5
179
330
1F
100
AcDbEntity
  8
0
  6
Continuous
 62
     7
370
    15
100
AcDbSpline
210
0.0
220
0.0
230
1.0
 70
     8
 71
     3
 72
     8
 73
     4
 74
     0
 42
0.000000001
 43
0.00000001
 40
0.2413793103448276
 40
0.2413793103448276
 40
0.2413793103448276
 40
0.2413793103448276
 40
0.2758620689655173
 40
0.2758620689655173
 40
0.2758620689655173
 40
0.2758620689655173
 10
-126.7467536599992
 20
44.50758868000002
 30
0.0
 10
-126.6990600799992
 20
44.45285422000003
 30
0.0
 10
-126.6743331799993
 20
44.37166058000002
 30
0.0
 10
-126.6743331799993
 20
44.26397982000003
 30
0.0
  0
SPLINE
  5
17B
330
1F
100
AcDbEntity
  8
0
  6
Continuous
 62
     7
370
    15
100
AcDbSpline
210
0.0
220
0.0
230
1.0
 70
     8
 71
     3
 72
     8
 73
     4
 74
     0
 42
0.000000001
 43
0.00000001
 40
0.1724137931034483
 40
0.1724137931034483
 40
0.1724137931034483
 40
0.1724137931034483
 40
0.206896551724138
 40
0.206896551724138
 40
0.206896551724138
 40
0.206896551724138
 10
-126.6743331799993
 20
41.19773246000003
 30
0.0
 10
-126.6743331799993
 20
40.73348142000003
 30
0.0
 10
-126.6125298999992
 20
40.34511542000002
 30
0.0
 10
-126.4889233399993
 20
40.03442262000002
 30
0.0
  0
SPLINE
  5
17C
330
1F
100
AcDbEntity
  8
0
  6
Continuous
 62
     7
370
    15
100
AcDbSpline
210
0.0
220
0.0
230
1.0
 70
     8
 71
     3
 72
     8
 73
     4
 74
     0
 42
0.000000001
 43
0.00000001
 40
0.1379310344827586
 40
0.1379310344827586
 40
0.1379310344827586
 40
0.1379310344827586
 40
0.1724137931034483
 40
0.1724137931034483
 40
0.1724137931034483
 40
0.1724137931034483
 10
-126.4889233399993
 20
40.03442262000002
 30
0.0
 10
-126.3529672999993
 20
39.69727064000003
 30
0.0
 10
-126.1039939599992
 20
39.43600370000002
 30
0.0
 10
-125.7385108199992
 20
39.25419812000003
 30
0.0
  0
SPLINE
  5
17D
330
1F
100
AcDbEntity
  8
0
  6
Continuous
 62
     7
370
    15
100
AcDbSpline
210
0.0
220
0.0
230
1.0
 70
     8
 71
     3
 72
     8
 73
     4
 74
     0
 42
0.000000001
 43
0.00000001
 40
0.103448275862069
 40
0.103448275862069
 40
0.103448275862069
 40
0.103448275862069
 40
0.1379310344827586
 40
0.1379310344827586
 40
0.1379310344827586
 40
0.1379310344827586
 10
-125.7385108199992
 20
39.25419812000003
 30
0.0
 10
-125.2299469399993
 20
39.00176022000003
 30
0.0
 10
-124.5642764399992
 20
38.87642138000003
 30
0.0
 10
-123.7414434399993
 20
38.87642138000003
 30
0.0
  0
SPLINE
  5
17E
330
1F
100
AcDbEntity
  8
0
  6
Continuous
 62
     7
370
    15
100
AcDbSpline
210
0.0
220
0.0
230
1.0
 70
     8
 71
     3
 72
     8
 73
     4
 74
     0
 42
0.000000001
 43
0.00000001
 40
0.0689655172413793
 40
0.0689655172413793
 40
0.0689655172413793
 40
0.0689655172413793
 40
0.103448275862069
 40
0.103448275862069
 40
0.103448275862069
 40
0.103448275862069
 10
-123.7414434399993
 20
38.87642138000003
 30
0.0
 10
-122.5089541599992
 20
38.87642138000003
 30
0.0
 10
-121.6702232999993
 20
39.13592810000003
 30
0.0
 10
-121.2252787999992
 20
39.65667382000002
 30
0.0
  0
SPLINE
  5
17F
330
1F
100
AcDbEntity
  8
0
  6
Continuous
 62
     7
370
    15
100
AcDbSpline
210
0.0
220
0.0
230
1.0
 70
     8
 71
     3
 72
     8
 73
     4
 74
     0
 42
0.000000001
 43
0.00000001
 40
0.0344827586206897
 40
0.0344827586206897
 40
0.0344827586206897
 40
0.0344827586206897
 40
0.0689655172413793
 40
0.0689655172413793
 40
0.0689655172413793
 40
0.0689655172413793
 10
-121.2252787999992
 20
39.65667382000002
 30
0.0
 10
-120.9498183399993
 20
39.98499676000003
 30
0.0
 10
-120.8121020799992
 20
40.49870160000003
 30
0.0
 10
-120.8121020799992
 20
41.19773246000003
 30
0.0
  0
SPLINE
  5
181
330
1F
100
AcDbEntity
  8
0
  6
Continuous
 62
     7
370
    15
100
AcDbSpline
210
0.0
220
0.0
230
1.0
 70
     8
 71
     3
 72
     8
 73
     4
 74
     0
 42
0.000000001
 43
0.00000001
 40
0.9655172413793099
 40
0.9655172413793099
 40
0.9655172413793099
 40
0.9655172413793099
 40
1.0
 40
1.0
 40
1.0
 40
1.0
 10
-120.8121020799992
 20
44.26397982000003
 30
0.0
 10
-120.8121020799992
 20
44.37166058000002
 30
0.0
 10
-120.7873472399993
 20
44.45285422000003
 30
0.0
 10
-120.7396815999992
 20
44.50934890000002
 30
0.0
  0
SPLINE
  5
182
330
1F
100
AcDbEntity
  8
0
  6
Continuous
 62
     7
370
    15
100
AcDbSpline
210
0.0
220
0.0
230
1.0
 70
     8
 71
     3
 72
     8
 73
     4
 74
     0
 42
0.000000001
 43
0.00000001
 40
0.9310344827586203
 40
0.9310344827586203
 40
0.9310344827586203
 40
0.9310344827586203
 40
0.9655172413793099
 40
0.9655172413793099
 40
0.9655172413793099
 40
0.9655172413793099
 10
-120.7396815999992
 20
44.50934890000002
 30
0.0
 10
-120.6902277999993
 20
44.56760380000003
 30
0.0
 10
-120.6037255599993
 20
44.61172106000003
 30
0.0
 10
-120.4801189999992
 20
44.64703722000002
 30
0.0
  0
SPLINE
  5
185
330
1F
100
AcDbEntity
  8
0
  6
Continuous
 62
     7
370
    15
100
AcDbSpline
210
0.0
220
0.0
230
1.0
 70
     8
 71
     3
 72
     8
 73
     4
 74
     0
 42
0.000000001
 43
0.00000001
 40
0.9024390243902444
 40
0.9024390243902444
 40
0.9024390243902444
 40
0.9024390243902444
 40
0.9268292682926834
 40
0.9268292682926834
 40
0.9268292682926834
 40
0.9268292682926834
 10
-114.6337578199992
 20
44.32047450000002
 30
0.0
 10
-115.1104980399992
 20
44.54111668000003
 30
0.0
 10
-115.5201543199992
 20
44.69470286000003
 30
0.0
 10
-115.8626987199993
 20
44.78296532000002
 30
0.0
  0
SPLINE
  5
186
330
1F
100
AcDbEntity
  8
0
  6
Continuous
 62
     7
370
    15
100
AcDbSpline
210
0.0
220
0.0
230
1.0
 70
     8
 71
     3
 72
     8
 73
     4
 74
     0
 42
0.000000001
 43
0.00000001
 40
0.8780487804878053
 40
0.8780487804878053
 40
0.8780487804878053
 40
0.8780487804878053
 40
0.9024390243902444
 40
0.9024390243902444
 40
0.9024390243902444
 40
0.9024390243902444
 10
-115.8626987199993
 20
44.78296532000002
 30
0.0
 10
-116.2070312799992
 20
44.87122778000002
 30
0.0
 10
-116.5760627999992
 20
44.91534504000003
 30
0.0
 10
-116.9733416599993
 20
44.91534504000003
 30
0.0
  0
SPLINE
  5
187
330
1F
100
AcDbEntity
  8
0
  6
Continuous
 62
     7
370
    15
100
AcDbSpline
210
0.0
220
0.0
230
1.0
 70
     8
 71
     3
 72
     8
 73
     4
 74
     0
 42
0.000000001
 43
0.00000001
 40
0.8536585365853663
 40
0.8536585365853663
 40
0.8536585365853663
 40
0.8536585365853663
 40
0.8780487804878053
 40
0.8780487804878053
 40
0.8780487804878053
 40
0.8780487804878053
 10
-116.9733416599993
 20
44.91534504000003
 30
0.0
 10
-117.7043638199992
 20
44.91534504000003
 30
0.0
 10
-118.3188202999993
 20
44.76354702000003
 30
0.0
 10
-118.8150067599993
 20
44.45992304000002
 30
0.0
  0
SPLINE
  5
188
330
1F
100
AcDbEntity
  8
0
  6
Continuous
 62
     7
370
    15
100
AcDbSpline
210
0.0
220
0.0
230
1.0
 70
     8
 71
     3
 72
     8
 73
     4
 74
     0
 42
0.000000001
 43
0.00000001
 40
0.8292682926829272
 40
0.8292682926829272
 40
0.8292682926829272
 40
0.8292682926829272
 40
0.8536585365853663
 40
0.8536585365853663
 40
0.8536585365853663
 40
0.8536585365853663
 10
-118.8150067599993
 20
44.45992304000002
 30
0.0
 10
-119.3606190799993
 20
44.12629150000002
 30
0.0
 10
-119.6325590999993
 20
43.64083400000003
 30
0.0
 10
-119.6325590999993
 20
43.00712686000003
 30
0.0
  0
SPLINE
  5
189
330
1F
100
AcDbEntity
  8
0
  6
Continuous
 62
     7
370
    15
100
AcDbSpline
210
0.0
220
0.0
230
1.0
 70
     8
 71
     3
 72
     8
 73
     4
 74
     0
 42
0.000000001
 43
0.00000001
 40
0.8048780487804882
 40
0.8048780487804882
 40
0.8048780487804882
 40
0.8048780487804882
 40
0.8292682926829272
 40
0.8292682926829272
 40
0.8292682926829272
 40
0.8292682926829272
 10
-119.6325590999993
 20
43.00712686000003
 30
0.0
 10
-119.6325590999993
 20
42.72468140000003
 30
0.0
 10
-119.5707558199992
 20
42.46341446000002
 30
0.0
 10
-119.4471492599993
 20
42.22687442000002
 30
0.0
  0
SPLINE
  5
18A
330
1F
100
AcDbEntity
  8
0
  6
Continuous
 62
     7
370
    15
100
AcDbSpline
210
0.0
220
0.0
230
1.0
 70
     8
 71
     3
 72
     8
 73
     4
 74
     0
 42
0.000000001
 43
0.00000001
 40
0.7804878048780491
 40
0.7804878048780491
 40
0.7804878048780491
 40
0.7804878048780491
 40
0.8048780487804882
 40
0.8048780487804882
 40
0.8048780487804882
 40
0.8048780487804882
 10
-119.4471492599993
 20
42.22687442000002
 30
0.0
 10
-119.3217545399993
 20
41.98857416000002
 30
0.0
 10
-119.1505102799993
 20
41.79967182000003
 30
0.0
 10
-118.9297842799992
 20
41.66198350000002
 30
0.0
  0
SPLINE
  5
18B
330
1F
100
AcDbEntity
  8
0
  6
Continuous
 62
     7
370
    15
100
AcDbSpline
210
0.0
220
0.0
230
1.0
 70
     8
 71
     3
 72
     8
 73
     4
 74
     0
 42
0.000000001
 43
0.00000001
 40
0.7560975609756101
 40
0.7560975609756101
 40
0.7560975609756101
 40
0.7560975609756101
 40
0.7804878048780491
 40
0.7804878048780491
 40
0.7804878048780491
 40
0.7804878048780491
 10
-118.9297842799992
 20
41.66198350000002
 30
0.0
 10
-118.7567518599992
 20
41.55609090000003
 30
0.0
 10
-118.5554441599992
 20
41.47486932000002
 30
0.0
 10
-118.3241568399992
 20
41.42016280000003
 30
0.0
  0
SPLINE
  5
18C
330
1F
100
AcDbEntity
  8
0
  6
Continuous
 62
     7
370
    15
100
AcDbSpline
210
0.0
220
0.0
230
1.0
 70
     8
 71
     3
 72
     8
 73
     4
 74
     0
 42
0.000000001
 43
0.00000001
 40
0.731707317073171
 40
0.731707317073171
 40
0.731707317073171
 40
0.731707317073171
 40
0.7560975609756101
 40
0.7560975609756101
 40
0.7560975609756101
 40
0.7560975609756101
 10
-118.3241568399992
 20
41.42016280000003
 30
0.0
 10
-118.0928136399992
 20
41.36366812000003
 30
0.0
 10
-117.7590982799993
 20
41.31955086000003
 30
0.0
 10
-117.3211946599992
 20
41.28599492000003
 30
0.0
  0
SPLINE
  5
18E
330
1F
100
AcDbEntity
  8
0
  6
Continuous
 62
     7
370
    15
100
AcDbSpline
210
0.0
220
0.0
230
1.0
 70
     8
 71
     3
 72
     8
 73
     4
 74
     0
 42
0.000000001
 43
0.00000001
 40
0.682926829268293
 40
0.682926829268293
 40
0.682926829268293
 40
0.682926829268293
 40
0.707317073170732
 40
0.707317073170732
 40
0.707317073170732
 40
0.707317073170732
 10
-116.5089788599993
 20
41.21715076000003
 30
0.0
 10
-116.0781161199992
 20
41.18007438000003
 30
0.0
 10
-115.7796889799992
 20
41.13419690000002
 30
0.0
 10
-115.6137253799992
 20
41.07770222000003
 30
0.0
  0
SPLINE
  5
18F
330
1F
100
AcDbEntity
  8
0
  6
Continuous
 62
     7
370
    15
100
AcDbSpline
210
0.0
220
0.0
230
1.0
 70
     8
 71
     3
 72
     8
 73
     4
 74
     0
 42
0.000000001
 43
0.00000001
 40
0.6585365853658539
 40
0.6585365853658539
 40
0.6585365853658539
 40
0.6585365853658539
 40
0.682926829268293
 40
0.682926829268293
 40
0.682926829268293
 40
0.682926829268293
 10
-115.6137253799992
 20
41.07770222000003
 30
0.0
 10
-115.3647520399993
 20
40.99650858000003
 30
0.0
 10
-115.2411454799992
 20
40.84999122000003
 30
0.0
 10
-115.2411454799992
 20
40.63991036000002
 30
0.0
  0
SPLINE
  5
190
330
1F
100
AcDbEntity
  8
0
  6
Continuous
 62
     7
370
    15
100
AcDbSpline
210
0.0
220
0.0
230
1.0
 70
     8
 71
     3
 72
     8
 73
     4
 74
     0
 42
0.000000001
 43
0.00000001
 40
0.6341463414634149
 40
0.6341463414634149
 40
0.6341463414634149
 40
0.6341463414634149
 40
0.6585365853658539
 40
0.6585365853658539
 40
0.6585365853658539
 40
0.6585365853658539
 10
-115.2411454799992
 20
40.63991036000002
 30
0.0
 10
-115.2411454799992
 20
40.37867136000003
 30
0.0
 10
-115.4212746599992
 20
40.18800880000002
 30
0.0
 10
-115.7796889799992
 20
40.07149900000002
 30
0.0
  0
SPLINE
  5
191
330
1F
100
AcDbEntity
  8
0
  6
Continuous
 62
     7
370
    15
100
AcDbSpline
210
0.0
220
0.0
230
1.0
 70
     8
 71
     3
 72
     8
 73
     4
 74
     0
 42
0.000000001
 43
0.00000001
 40
0.6097560975609758
 40
0.6097560975609758
 40
0.6097560975609758
 40
0.6097560975609758
 40
0.6341463414634149
 40
0.6341463414634149
 40
0.6341463414634149
 40
0.6341463414634149
 10
-115.7796889799992
 20
40.07149900000002
 30
0.0
 10
-116.0692870799993
 20
39.97440750000003
 30
0.0
 10
-116.3959336199993
 20
39.92674186000002
 30
0.0
 10
-116.7614446999992
 20
39.92674186000002
 30
0.0
  0
SPLINE
  5
192
330
1F
100
AcDbEntity
  8
0
  6
Continuous
 62
     7
370
    15
100
AcDbSpline
210
0.0
220
0.0
230
1.0
 70
     8
 71
     3
 72
     8
 73
     4
 74
     0
 42
0.000000001
 43
0.00000001
 40
0.5853658536585368
 40
0.5853658536585368
 40
0.5853658536585368
 40
0.5853658536585368
 40
0.6097560975609758
 40
0.6097560975609758
 40
0.6097560975609758
 40
0.6097560975609758
 10
-116.7614446999992
 20
39.92674186000002
 30
0.0
 10
-117.1764095799992
 20
39.92674186000002
 30
0.0
 10
-117.5948669599992
 20
39.98323654000003
 30
0.0
 10
-118.0186888199992
 20
40.09446568000003
 30
0.0
  0
SPLINE
  5
193
330
1F
100
AcDbEntity
  8
0
  6
Continuous
 62
     7
370
    15
100
AcDbSpline
210
0.0
220
0.0
230
1.0
 70
     8
 71
     3
 72
     8
 73
     4
 74
     0
 42
0.000000001
 43
0.00000001
 40
0.5609756097560977
 40
0.5609756097560977
 40
0.5609756097560977
 40
0.5609756097560977
 40
0.5853658536585368
 40
0.5853658536585368
 40
0.5853658536585368
 40
0.5853658536585368
 10
-118.0186888199992
 20
40.09446568000003
 30
0.0
 10
-118.4442150199993
 20
40.20742710000003
 30
0.0
 10
-118.7426142199992
 20
40.33804660000003
 30
0.0
 10
-118.9138864199993
 20
40.48987256000003
 30
0.0
  0
SPLINE
  5
194
330
1F
100
AcDbEntity
  8
0
  6
Continuous
 62
     7
370
    15
100
AcDbSpline
210
0.0
220
0.0
230
1.0
 70
     8
 71
     3
 72
     8
 73
     4
 74
     0
 42
0.000000001
 43
0.00000001
 40
0.5365853658536587
 40
0.5365853658536587
 40
0.5365853658536587
 40
0.5365853658536587
 40
0.5609756097560977
 40
0.5609756097560977
 40
0.5609756097560977
 40
0.5609756097560977
 10
-118.9138864199993
 20
40.48987256000003
 30
0.0
 10
-118.9827585199993
 20
40.55164790000003
 30
0.0
 10
-119.0180467399993
 20
40.62756088000003
 30
0.0
 10
-119.0180467399993
 20
40.71758356000003
 30
0.0
  0
SPLINE
  5
199
330
1F
100
AcDbEntity
  8
0
  6
Continuous
 62
     7
370
    15
100
AcDbSpline
210
0.0
220
0.0
230
1.0
 70
     8
 71
     3
 72
     8
 73
     4
 74
     0
 42
0.000000001
 43
0.00000001
 40
0.4146341463414635
 40
0.4146341463414635
 40
0.4146341463414635
 40
0.4146341463414635
 40
0.4390243902439026
 40
0.4390243902439026
 40
0.4390243902439026
 40
0.4390243902439026
 10
-119.6131128599992
 20
39.34246058000002
 30
0.0
 10
-119.5548579599992
 20
39.42541444000002
 30
0.0
 10
-119.4895342399992
 20
39.46603920000003
 30
0.0
 10
-119.4206621399993
 20
39.46603920000003
 30
0.0
  0
SPLINE
  5
19A
330
1F
100
AcDbEntity
  8
0
  6
Continuous
 62
     7
370
    15
100
AcDbSpline
210
0.0
220
0.0
230
1.0
 70
     8
 71
     3
 72
     8
 73
     4
 74
     0
 42
0.000000001
 43
0.00000001
 40
0.3902439024390245
 40
0.3902439024390245
 40
0.3902439024390245
 40
0.3902439024390245
 40
0.4146341463414635
 40
0.4146341463414635
 40
0.4146341463414635
 40
0.4146341463414635
 10
-119.4206621399993
 20
39.46603920000003
 30
0.0
 10
-119.3835857599992
 20
39.46603920000003
 30
0.0
 10
-119.3359201199992
 20
39.45366178000003
 30
0.0
 10
-119.2811577199992
 20
39.43072304000003
 30
0.0
  0
SPLINE
  5
19B
330
1F
100
AcDbEntity
  8
0
  6
Continuous
 62
     7
370
    15
100
AcDbSpline
210
0.0
220
0.0
230
1.0
 70
     8
 71
     3
 72
     8
 73
     4
 74
     0
 42
0.000000001
 43
0.00000001
 40
0.3658536585365854
 40
0.3658536585365854
 40
0.3658536585365854
 40
0.3658536585365854
 40
0.3902439024390245
 40
0.3902439024390245
 40
0.3902439024390245
 40
0.3902439024390245
 10
-119.2811577199992
 20
39.43072304000003
 30
0.0
 10
-118.4671537599992
 20
39.06177534000003
 30
0.0
 10
-117.6249024599992
 20
38.87642138000003
 30
0.0
 10
-116.7508554399993
 20
38.87642138000003
 30
0.0
  0
SPLINE
  5
19C
330
1F
100
AcDbEntity
  8
0
  6
Continuous
 62
     7
370
    15
100
AcDbSpline
210
0.0
220
0.0
230
1.0
 70
     8
 71
     3
 72
     8
 73
     4
 74
     0
 42
0.000000001
 43
0.00000001
 40
0.3170731707317073
 40
0.3170731707317073
 40
0.3170731707317073
 40
0.3170731707317073
 40
0.3414634146341464
 40
0.3414634146341464
 40
0.3414634146341464
 40
0.3414634146341464
 10
-114.6920127199993
 20
39.36715954000002
 30
0.0
 10
-114.1605100999993
 20
39.70962012000003
 30
0.0
 10
-113.8956668399992
 20
40.17389910000002
 30
0.0
 10
-113.8956668399992
 20
40.76348898000003
 30
0.0
  0
SPLINE
  5
19D
330
1F
100
AcDbEntity
  8
0
  6
Continuous
 62
     7
370
    15
100
AcDbSpline
210
0.0
220
0.0
230
1.0
 70
     8
 71
     3
 72
     8
 73
     4
 74
     0
 42
0.000000001
 43
0.00000001
 40
0.2926829268292683
 40
0.2926829268292683
 40
0.2926829268292683
 40
0.2926829268292683
 40
0.3170731707317073
 40
0.3170731707317073
 40
0.3170731707317073
 40
0.3170731707317073
 10
-113.8956668399992
 20
40.76348898000003
 30
0.0
 10
-113.8956668399992
 20
41.08829148000002
 30
0.0
 10
-113.9804088599992
 20
41.37777782000003
 30
0.0
 10
-114.1499208399992
 20
41.63728454000002
 30
0.0
  0
SPLINE
  5
19E
330
1F
100
AcDbEntity
  8
0
  6
Continuous
 62
     7
370
    15
100
AcDbSpline
210
0.0
220
0.0
230
1.0
 70
     8
 71
     3
 72
     8
 73
     4
 74
     0
 42
0.000000001
 43
0.00000001
 40
0.2682926829268292
 40
0.2682926829268292
 40
0.2682926829268292
 40
0.2682926829268292
 40
0.2926829268292683
 40
0.2926829268292683
 40
0.2926829268292683
 40
0.2926829268292683
 10
-114.1499208399992
 20
41.63728454000002
 30
0.0
 10
-114.2841166599992
 20
41.84381702000002
 30
0.0
 10
-114.4536286399993
 20
42.00975268000003
 30
0.0
 10
-114.6619772199992
 20
42.13330336000003
 30
0.0
  0
SPLINE
  5
19F
330
1F
100
AcDbEntity
  8
0
  6
Continuous
 62
     7
370
    15
100
AcDbSpline
210
0.0
220
0.0
230
1.0
 70
     8
 71
     3
 72
     8
 73
     4
 74
     0
 42
0.000000001
 43
0.00000001
 40
0.2439024390243902
 40
0.2439024390243902
 40
0.2439024390243902
 40
0.2439024390243902
 40
0.2682926829268292
 40
0.2682926829268292
 40
0.2682926829268292
 40
0.2682926829268292
 10
-114.6619772199992
 20
42.13330336000003
 30
0.0
 10
-115.0345571199992
 20
42.35397348000003
 30
0.0
 10
-115.5766489999992
 20
42.49166180000002
 30
0.0
 10
-116.2917732999992
 20
42.54639626000003
 30
0.0
  0
SPLINE
  5
1A1
330
1F
100
AcDbEntity
  8
0
  6
Continuous
 62
     7
370
    15
100
AcDbSpline
210
0.0
220
0.0
230
1.0
 70
     8
 71
     3
 72
     8
 73
     4
 74
     0
 42
0.000000001
 43
0.00000001
 40
0.1951219512195122
 40
0.1951219512195122
 40
0.1951219512195122
 40
0.1951219512195122
 40
0.2195121951219512
 40
0.2195121951219512
 40
0.2195121951219512
 40
0.2195121951219512
 10
-117.1092976999993
 20
42.60817160000003
 30
0.0
 10
-117.6231422399993
 20
42.65052864000003
 30
0.0
 10
-117.9692350199992
 20
42.70702332000003
 30
0.0
 10
-118.1493362599992
 20
42.77762770000003
 30
0.0
  0
SPLINE
  5
1A2
330
1F
100
AcDbEntity
  8
0
  6
Continuous
 62
     7
370
    15
100
AcDbSpline
210
0.0
220
0.0
230
1.0
 70
     8
 71
     3
 72
     8
 73
     4
 74
     0
 42
0.000000001
 43
0.00000001
 40
0.1707317073170732
 40
0.1707317073170732
 40
0.1707317073170732
 40
0.1707317073170732
 40
0.1951219512195122
 40
0.1951219512195122
 40
0.1951219512195122
 40
0.1951219512195122
 10
-118.1493362599992
 20
42.77762770000003
 30
0.0
 10
-118.3276772799992
 20
42.84823208000003
 30
0.0
 10
-118.4176999599992
 20
42.96650210000003
 30
0.0
 10
-118.4176999599992
 20
43.13598614000003
 30
0.0
  0
SPLINE
  5
1A3
330
1F
100
AcDbEntity
  8
0
  6
Continuous
 62
     7
370
    15
100
AcDbSpline
210
0.0
220
0.0
230
1.0
 70
     8
 71
     3
 72
     8
 73
     4
 74
     0
 42
0.000000001
 43
0.00000001
 40
0.1463414634146341
 40
0.1463414634146341
 40
0.1463414634146341
 40
0.1463414634146341
 40
0.1707317073170732
 40
0.1707317073170732
 40
0.1707317073170732
 40
0.1707317073170732
 10
-118.4176999599992
 20
43.13598614000003
 30
0.0
 10
-118.4176999599992
 20
43.39194448000003
 30
0.0
 10
-118.2305578399992
 20
43.58612748000002
 30
0.0
 10
-117.8579779399992
 20
43.72026742000002
 30
0.0
  0
SPLINE
  5
1A4
330
1F
100
AcDbEntity
  8
0
  6
Continuous
 62
     7
370
    15
100
AcDbSpline
210
0.0
220
0.0
230
1.0
 70
     8
 71
     3
 72
     8
 73
     4
 74
     0
 42
0.000000001
 43
0.00000001
 40
0.1219512195121951
 40
0.1219512195121951
 40
0.1219512195121951
 40
0.1219512195121951
 40
0.1463414634146341
 40
0.1463414634146341
 40
0.1463414634146341
 40
0.1463414634146341
 10
-117.8579779399992
 20
43.72026742000002
 30
0.0
 10
-117.6001755599992
 20
43.81383848000003
 30
0.0
 10
-117.3035365799993
 20
43.85974390000003
 30
0.0
 10
-116.9680330599992
 20
43.85974390000003
 30
0.0
  0
SPLINE
  5
1A5
330
1F
100
AcDbEntity
  8
0
  6
Continuous
 62
     7
370
    15
100
AcDbSpline
210
0.0
220
0.0
230
1.0
 70
     8
 71
     3
 72
     8
 73
     4
 74
     0
 42
0.000000001
 43
0.00000001
 40
0.0975609756097561
 40
0.0975609756097561
 40
0.0975609756097561
 40
0.0975609756097561
 40
0.1219512195121951
 40
0.1219512195121951
 40
0.1219512195121951
 40
0.1219512195121951
 10
-116.9680330599992
 20
43.85974390000003
 30
0.0
 10
-116.5760627999992
 20
43.85974390000003
 30
0.0
 10
-116.1875850399992
 20
43.80324922000002
 30
0.0
 10
-115.8044438199992
 20
43.68849964000002
 30
0.0
  0
SPLINE
  5
1A6
330
1F
100
AcDbEntity
  8
0
  6
Continuous
 62
     7
370
    15
100
AcDbSpline
210
0.0
220
0.0
230
1.0
 70
     8
 71
     3
 72
     8
 73
     4
 74
     0
 42
0.000000001
 43
0.00000001
 40
0.0731707317073171
 40
0.0731707317073171
 40
0.0731707317073171
 40
0.0731707317073171
 40
0.0975609756097561
 40
0.0975609756097561
 40
0.0975609756097561
 40
0.0975609756097561
 10
-115.8044438199992
 20
43.68849964000002
 30
0.0
 10
-115.4212746599992
 20
43.57553822000002
 30
0.0
 10
-115.1316765599993
 20
43.43078108000002
 30
0.0
 10
-114.9356774599992
 20
43.25425616000003
 30
0.0
  0
SPLINE
  5
1A7
330
1F
100
AcDbEntity
  8
0
  6
Continuous
 62
     7
370
    15
100
AcDbSpline
210
0.0
220
0.0
230
1.0
 70
     8
 71
     3
 72
     8
 73
     4
 74
     0
 42
0.000000001
 43
0.00000001
 40
0.0487804878048781
 40
0.0487804878048781
 40
0.0487804878048781
 40
0.0487804878048781
 40
0.0731707317073171
 40
0.0731707317073171
 40
0.0731707317073171
 40
0.0731707317073171
 10
-114.9356774599992
 20
43.25425616000003
 30
0.0
 10
-114.8632849199992
 20
43.18893244000002
 30
0.0
 10
-114.8262085399993
 20
43.09890976000003
 30
0.0
 10
-114.8262085399993
 20
42.98592040000003
 30
0.0
  0
SPLINE
  5
1AB
330
1F
100
AcDbEntity
  8
0
  6
Continuous
 62
     7
370
    15
100
AcDbSpline
210
0.0
220
0.0
230
1.0
 70
     8
 71
     3
 72
     8
 73
     4
 74
     0
 42
0.000000001
 43
0.00000001
 40
0.9512195121951225
 40
0.9512195121951225
 40
0.9512195121951225
 40
0.9512195121951225
 40
0.9756097560975615
 40
0.9756097560975615
 40
0.9756097560975615
 40
0.9756097560975615
 10
-114.1269820999993
 20
44.33634442000002
 30
0.0
 10
-114.2135122799992
 20
44.26043144000003
 30
0.0
 10
-114.2841166599992
 20
44.22159484000002
 30
0.0
 10
-114.3388511199992
 20
44.22159484000002
 30
0.0
  0
SPLINE
  5
1AC
330
1F
100
AcDbEntity
  8
0
  6
Continuous
 62
     7
370
    15
100
AcDbSpline
210
0.0
220
0.0
230
1.0
 70
     8
 71
     3
 72
     8
 73
     4
 74
     0
 42
0.000000001
 43
0.00000001
 40
0.9268292682926834
 40
0.9268292682926834
 40
0.9268292682926834
 40
0.9268292682926834
 40
0.9512195121951225
 40
0.9512195121951225
 40
0.9512195121951225
 40
0.9512195121951225
 10
-114.3388511199992
 20
44.22159484000002
 30
0.0
 10
-114.3953737399993
 20
44.22159484000002
 30
0.0
 10
-114.4924931799993
 20
44.25515078000002
 30
0.0
 10
-114.6337578199992
 20
44.32047450000002
 30
0.0
  0
SPLINE
  5
1AD
330
1F
100
AcDbEntity
  8
0
  6
Continuous
 62
     7
370
    15
100
AcDbSpline
210
0.0
220
0.0
230
1.0
 70
     8
 71
     3
 72
     8
 73
     4
 74
     0
 42
0.000000001
 43
0.00000001
 40
0.3414634146341464
 40
0.3414634146341464
 40
0.3414634146341464
 40
0.3414634146341464
 40
0.3658536585365854
 40
0.3658536585365854
 40
0.3658536585365854
 40
0.3658536585365854
 10
-116.7508554399993
 20
38.87642138000003
 30
0.0
 10
-115.8856374599992
 20
38.87642138000003
 30
0.0
 10
-115.1987884399992
 20
39.04059682000003
 30
0.0
 10
-114.6920127199993
 20
39.36715954000002
 30
0.0
  0
SPLINE
  5
1AE
330
1F
100
AcDbEntity
  8
0
  6
Continuous
 62
     7
370
    15
100
AcDbSpline
210
0.0
220
0.0
230
1.0
 70
     8
 71
     3
 72
     8
 73
     4
 74
     0
 42
0.000000001
 43
0.00000001
 40
0.25
 40
0.25
 40
0.25
 40
0.25
 40
0.375
 40
0.375
 40
0.375
 40
0.375
 10
-136.7973025199992
 20
40.51635968000002
 30
0.0
 10
-136.4776689199992
 20
40.83940196000002
 30
0.0
 10
-136.3170139199993
 20
41.30013256000003
 30
0.0
 10
-136.3170139199993
 20
41.89676332000003
 30
0.0
  0
SPLINE
  5
1AF
330
1F
100
AcDbEntity
  8
0
  6
Continuous
 62
     7
370
    15
100
AcDbSpline
210
0.0
220
0.0
230
1.0
 70
     8
 71
     3
 72
     8
 73
     4
 74
     0
 42
0.000000001
 43
0.00000001
 40
0.125
 40
0.125
 40
0.125
 40
0.125
 40
0.25
 40
0.25
 40
0.25
 40
0.25
 10
-138.2769490399992
 20
40.05032048000003
 30
0.0
 10
-137.5971688399992
 20
40.05032048000003
 30
0.0
 10
-137.1045307599992
 20
40.20566688000002
 30
0.0
 10
-136.7973025199992
 20
40.51635968000002
 30
0.0
  0
SPLINE
  5
1B3
330
1F
100
AcDbEntity
  8
0
  6
Continuous
 62
     7
370
    15
100
AcDbSpline
210
0.0
220
0.0
230
1.0
 70
     8
 71
     3
 72
     8
 73
     4
 74
     0
 42
0.000000001
 43
0.00000001
 40
0.625
 40
0.625
 40
0.625
 40
0.625
 40
0.75
 40
0.75
 40
0.75
 40
0.75
 10
-137.3870320999992
 20
43.63024474000003
 30
0.0
 10
-137.6218957399992
 20
43.70439750000003
 30
0.0
 10
-137.9185347199992
 20
43.74144594000003
 30
0.0
 10
-138.2769490399992
 20
43.74144594000003
 30
0.0
  0
SPLINE
  5
1B4
330
1F
100
AcDbEntity
  8
0
  6
Continuous
 62
     7
370
    15
100
AcDbSpline
210
0.0
220
0.0
230
1.0
 70
     8
 71
     3
 72
     8
 73
     4
 74
     0
 42
0.000000001
 43
0.00000001
 40
0.5
 40
0.5
 40
0.5
 40
0.5
 40
0.625
 40
0.625
 40
0.625
 40
0.625
 10
-136.7973025199992
 20
43.27543468000003
 30
0.0
 10
-136.9561972999992
 20
43.43784990000002
 30
0.0
 10
-137.1539566199992
 20
43.55611992000001
 30
0.0
 10
-137.3870320999992
 20
43.63024474000003
 30
0.0
  0
SPLINE
  5
1B5
330
1F
100
AcDbEntity
  8
0
  6
Continuous
 62
     7
370
    15
100
AcDbSpline
210
0.0
220
0.0
230
1.0
 70
     8
 71
     3
 72
     8
 73
     4
 74
     0
 42
0.000000001
 43
0.00000001
 40
0.375
 40
0.375
 40
0.375
 40
0.375
 40
0.5
 40
0.5
 40
0.5
 40
0.5
 10
-136.3170139199993
 20
41.89676332000003
 30
0.0
 10
-136.3170139199993
 20
42.49166180000002
 30
0.0
 10
-136.4776689199992
 20
42.95239240000002
 30
0.0
 10
-136.7973025199992
 20
43.27543468000003
 30
0.0
  0
SPLINE
  5
1B9
330
1F
100
AcDbEntity
  8
0
  6
Continuous
 62
     7
370
    15
100
AcDbSpline
210
0.0
220
0.0
230
1.0
 70
     8
 71
     3
 72
     8
 73
     4
 74
     0
 42
0.000000001
 43
0.00000001
 40
0.5714285714285714
 40
0.5714285714285714
 40
0.5714285714285714
 40
0.5714285714285714
 40
0.7142857142857142
 40
0.7142857142857142
 40
0.7142857142857142
 40
0.7142857142857142
 10
-129.4129560999992
 20
43.59671674000003
 30
0.0
 10
-129.5630497799992
 20
43.69380824000002
 30
0.0
 10
-129.8296532599992
 20
43.74144594000003
 30
0.0
 10
-130.2128224199992
 20
43.74144594000003
 30
0.0
  0
SPLINE
  5
1BA
330
1F
100
AcDbEntity
  8
0
  6
Continuous
 62
     7
370
    15
100
AcDbSpline
210
0.0
220
0.0
230
1.0
 70
     8
 71
     3
 72
     8
 73
     4
 74
     0
 42
0.000000001
 43
0.00000001
 40
0.4285714285714285
 40
0.4285714285714285
 40
0.4285714285714285
 40
0.4285714285714285
 40
0.5714285714285714
 40
0.5714285714285714
 40
0.5714285714285714
 40
0.5714285714285714
 10
-129.1887096599992
 20
43.08480006000003
 30
0.0
 10
-129.1887096599992
 20
43.33016914000002
 30
0.0
 10
-129.2628624199993
 20
43.49962524000003
 30
0.0
 10
-129.4129560999992
 20
43.59671674000003
 30
0.0
  0
SPLINE
  5
1BB
330
1F
100
AcDbEntity
  8
0
  6
Continuous
 62
     7
370
    15
100
AcDbSpline
210
0.0
220
0.0
230
1.0
 70
     8
 71
     3
 72
     8
 73
     4
 74
     0
 42
0.000000001
 43
0.00000001
 40
0.2857142857142857
 40
0.2857142857142857
 40
0.2857142857142857
 40
0.2857142857142857
 40
0.4285714285714285
 40
0.4285714285714285
 40
0.4285714285714285
 40
0.4285714285714285
 10
-129.5100755399992
 20
42.53225862000004
 30
0.0
 10
-129.2964183599993
 20
42.62406946000002
 30
0.0
 10
-129.1887096599992
 20
42.80939548000003
 30
0.0
 10
-129.1887096599992
 20
43.08480006000003
 30
0.0
  0
SPLINE
  5
1BC
330
1F
100
AcDbEntity
  8
0
  6
Continuous
 62
     7
370
    15
100
AcDbSpline
210
0.0
220
0.0
230
1.0
 70
     8
 71
     3
 72
     8
 73
     4
 74
     0
 42
0.000000001
 43
0.00000001
 40
0.1428571428571428
 40
0.1428571428571428
 40
0.1428571428571428
 40
0.1428571428571428
 40
0.2857142857142857
 40
0.2857142857142857
 40
0.2857142857142857
 40
0.2857142857142857
 10
-130.2128224199992
 20
42.42812624000003
 30
0.0
 10
-129.8950049199993
 20
42.42812624000003
 30
0.0
 10
-129.6601692199993
 20
42.46341446000002
 30
0.0
 10
-129.5100755399992
 20
42.53225862000004
 30
0.0
  0
LINE
  5
214
330
1F
100
AcDbEntity
  8
0
  6
Continuous
 62
     7
370
    15
100
AcDbLine
 10
192.5
 20
-31.6
 30
0.0
 11
168.0
 21
-31.6
 31
0.0
  0
LINE
  5
215
330
1F
100
AcDbEntity
  8
0
  6
Continuous
 62
     7
370
    15
100
AcDbLine
 10
168.0
 20
-58.4
 30
0.0
 11
192.5
 21
-58.4
 31
0.0
  0
LINE
  5
216
330
1F
100
AcDbEntity
  8
0
  6
Continuous
 62
     7
370
    15
100
AcDbLine
 10
192.5
 20
-58.4
 30
0.0
 11
193.0
 21
-57.9
 31
0.0
  0
LINE
  5
217
330
1F
100
AcDbEntity
  8
0
  6
Continuous
 62
     7
370
    15
100
AcDbLine
 10
193.0
 20
-32.1
 30
0.0
 11
192.5
 21
-31.6
 31
0.0
  0
LINE
  5
218
330
1F
100
AcDbEntity
  8
0
  6
Continuous
 62
     7
370
    15
100
AcDbLine
 10
-168.0
 20
-31.6
 30
0.0
 11
-192.5
 21
-31.6
 31
0.0
  0
LINE
  5
219
330
1F
100
AcDbEntity
  8
0
  6
Continuous
 62
     7
370
    15
100
AcDbLine
 10
-192.5
 20
-58.4
 30
0.0
 11
-168.0
 21
-58.4
 31
0.0
  0
LINE
  5
21A
330
1F
100
AcDbEntity
  8
0
  6
Continuous
 62
     7
370
    15
100
AcDbLine
 10
-192.5
 20
-31.6
 30
0.0
 11
-193.0
 21
-32.1
 31
0.0
  0
LINE
  5
21B
330
1F
100
AcDbEntity
  8
0
  6
Continuous
 62
     7
370
    15
100
AcDbLine
 10
-193.0
 20
-57.9
 30
0.0
 11
-192.5
 21
-58.4
 31
0.0
  0
LINE
  5
21C
330
1F
100
AcDbEntity
  8
0
  6
Continuous
 62
     7
370
    15
100
AcDbLine
 10
-168.0
 20
58.4
 30
0.0
 11
-192.5
 21
58.4
 31
0.0
  0
LINE
  5
21D
330
1F
100
AcDbEntity
  8
0
  6
Continuous
 62
     7
370
    15
100
AcDbLine
 10
-192.5
 20
31.6
 30
0.0
 11
-168.0
 21
31.6
 31
0.0
  0
LINE
  5
21E
330
1F
100
AcDbEntity
  8
0
  6
Continuous
 62
     7
370
    15
100
AcDbLine
 10
192.5
 20
58.4
 30
0.0
 11
168.0
 21
58.4
 31
0.0
  0
LINE
  5
21F
330
1F
100
AcDbEntity
  8
0
  6
Continuous
 62
     7
370
    15
100
AcDbLine
 10
168.0
 20
31.6
 30
0.0
 11
192.5
 21
31.6
 31
0.0
  0
LINE
  5
220
330
1F
100
AcDbEntity
  8
0
  6
Continuous
 62
     7
370
    15
100
AcDbLine
 10
192.5
 20
31.6
 30
0.0
 11
193.0
 21
32.1
 31
0.0
  0
LINE
  5
221
330
1F
100
AcDbEntity
  8
0
  6
Continuous
 62
     7
370
    15
100
AcDbLine
 10
193.0
 20
57.9
 30
0.0
 11
192.5
 21
58.4
 31
0.0
  0
LINE
  5
222
330
1F
100
AcDbEntity
  8
0
  6
Continuous
 62
     7
370
    15
100
AcDbLine
 10
-192.5
 20
58.4
 30
0.0
 11
-193.0
 21
57.9
 31
0.0
  0
LINE
  5
223
330
1F
100
AcDbEntity
  8
0
  6
Continuous
 62
     7
370
    15
100
AcDbLine
 10
-193.0
 20
32.1
 30
0.0
 11
-192.5
 21
31.6
 31
0.0
  0
LINE
  5
224
330
1F
100
AcDbEntity
  8
0
  6
Continuous
 62
     7
370
    15
100
AcDbLine
 10
148.4
 20
68.0
 30
0.0
 11
148.4
 21
88.5
 31
0.0
  0
LINE
  5
225
330
1F
100
AcDbEntity
  8
0
  6
Continuous
 62
     7
370
    15
100
AcDbLine
 10
121.6
 20
88.5
 30
0.0
 11
121.6
 21
68.0
 31
0.0
  0
LINE
  5
226
330
1F
100
AcDbEntity
  8
0
  6
Continuous
 62
     7
370
    15
100
AcDbLine
 10
-31.6
 20
-22.0
 30
0.0
 11
-31.6
 21
22.0
 31
0.0
  0
LINE
  5
227
330
1F
100
AcDbEntity
  8
0
  6
Continuous
 62
     7
370
    15
100
AcDbLine
 10
-58.4
 20
22.0
 30
0.0
 11
-58.4
 21
-22.0
 31
0.0
  0
LINE
  5
228
330
1F
100
AcDbEntity
  8
0
  6
Continuous
 62
     7
370
    15
100
AcDbLine
 10
-121.6
 20
68.0
 30
0.0
 11
-121.6
 21
88.5
 31
0.0
  0
LINE
  5
229
330
1F
100
AcDbEntity
  8
0
  6
Continuous
 62
     7
370
    15
100
AcDbLine
 10
-148.4
 20
88.5
 30
0.0
 11
-148.4
 21
68.0
 31
0.0
  0
LINE
  5
22A
330
1F
100
AcDbEntity
  8
0
  6
Continuous
 62
     7
370
    15
100
AcDbLine
 10
148.4
 20
88.5
 30
0.0
 11
147.9
 21
89.0
 31
0.0
  0
LINE
  5
22B
330
1F
100
AcDbEntity
  8
0
  6
Continuous
 62
     7
370
    15
100
AcDbLine
 10
122.1
 20
89.0
 30
0.0
 11
121.6
 21
88.5
 31
0.0
  0
LINE
  5
22C
330
1F
100
AcDbEntity
  8
0
  6
Continuous
 62
     7
370
    15
100
AcDbLine
 10
148.4
 20
-22.0
 30
0.0
 11
148.4
 21
22.0
 31
0.0
  0
LINE
  5
22D
330
1F
100
AcDbEntity
  8
0
  6
Continuous
 62
     7
370
    15
100
AcDbLine
 10
121.6
 20
22.0
 30
0.0
 11
121.6
 21
-22.0
 31
0.0
  0
LINE
  5
22E
330
1F
100
AcDbEntity
  8
0
  6
Continuous
 62
     7
370
    15
100
AcDbLine
 10
-121.6
 20
-22.0
 30
0.0
 11
-121.6
 21
22.0
 31
0.0
  0
LINE
  5
22F
330
1F
100
AcDbEntity
  8
0
  6
Continuous
 62
     7
370
    15
100
AcDbLine
 10
-148.4
 20
22.0
 30
0.0
 11
-148.4
 21
-22.0
 31
0.0
  0
LINE
  5
230
330
1F
100
AcDbEntity
  8
0
  6
Continuous
 62
     7
370
    15
100
AcDbLine
 10
-121.6
 20
88.5
 30
0.0
 11
-122.1
 21
89.0
 31
0.0
  0
LINE
  5
231
330
1F
100
AcDbEntity
  8
0
  6
Continuous
 62
     7
370
    15
100
AcDbLine
 10
-147.9
 20
89.0
 30
0.0
 11
-148.4
 21
88.5
 31
0.0
  0
LINE
  5
232
330
1F
100
AcDbEntity
  8
0
  6
Continuous
 62
     7
370
    15
100
AcDbLine
 10
148.4
 20
-88.5
 30
0.0
 11
148.4
 21
-68.0
 31
0.0
  0
LINE
  5
233
330
1F
100
AcDbEntity
  8
0
  6
Continuous
 62
     7
370
    15
100
AcDbLine
 10
121.6
 20
-68.0
 30
0.0
 11
121.6
 21
-88.5
 31
0.0
  0
LINE
  5
234
330
1F
100
AcDbEntity
  8
0
  6
Continuous
 62
     7
370
    15
100
AcDbLine
 10
-148.4
 20
-88.5
 30
0.0
 11
-147.9
 21
-89.0
 31
0.0
  0
LINE
  5
235
330
1F
100
AcDbEntity
  8
0
  6
Continuous
 62
     7
370
    15
100
AcDbLine
 10
-122.1
 20
-89.0
 30
0.0
 11
-121.6
 21
-88.5
 31
0.0
  0
LINE
  5
236
330
1F
100
AcDbEntity
  8
0
  6
Continuous
 62
     7
370
    15
100
AcDbLine
 10
121.6
 20
-88.5
 30
0.0
 11
122.1
 21
-89.0
 31
0.0
  0
LINE
  5
237
330
1F
100
AcDbEntity
  8
0
  6
Continuous
 62
     7
370
    15
100
AcDbLine
 10
147.9
 20
-89.0
 30
0.0
 11
148.4
 21
-88.5
 31
0.0
  0
LINE
  5
238
330
1F
100
AcDbEntity
  8
0
  6
Continuous
 62
     7
370
    15
100
AcDbLine
 10
-31.6
 20
-88.5
 30
0.0
 11
-31.6
 21
-68.0
 31
0.0
  0
LINE
  5
239
330
1F
100
AcDbEntity
  8
0
  6
Continuous
 62
     7
370
    15
100
AcDbLine
 10
-58.4
 20
-68.0
 30
0.0
 11
-58.4
 21
-88.5
 31
0.0
  0
LINE
  5
23A
330
1F
100
AcDbEntity
  8
0
  6
Continuous
 62
     7
370
    15
100
AcDbLine
 10
31.6
 20
-88.5
 30
0.0
 11
32.1
 21
-89.0
 31
0.0
  0
LINE
  5
23B
330
1F
100
AcDbEntity
  8
0
  6
Continuous
 62
     7
370
    15
100
AcDbLine
 10
57.9
 20
-89.0
 30
0.0
 11
58.4
 21
-88.5
 31
0.0
  0
LINE
  5
23C
330
1F
100
AcDbEntity
  8
0
  6
Continuous
 62
     7
370
    15
100
AcDbLine
 10
58.4
 20
-88.5
 30
0.0
 11
58.4
 21
-68.0
 31
0.0
  0
LINE
  5
23D
330
1F
100
AcDbEntity
  8
0
  6
Continuous
 62
     7
370
    15
100
AcDbLine
 10
31.6
 20
-68.0
 30
0.0
 11
31.6
 21
-88.5
 31
0.0
  0
LINE
  5
23E
330
1F
100
AcDbEntity
  8
0
  6
Continuous
 62
     7
370
    15
100
AcDbLine
 10
-58.4
 20
-88.5
 30
0.0
 11
-57.9
 21
-89.0
 31
0.0
  0
LINE
  5
23F
330
1F
100
AcDbEntity
  8
0
  6
Continuous
 62
     7
370
    15
100
AcDbLine
 10
-32.1
 20
-89.0
 30
0.0
 11
-31.6
 21
-88.5
 31
0.0
  0
LINE
  5
240
330
1F
100
AcDbEntity
  8
0
  6
Continuous
 62
     7
370
    15
100
AcDbLine
 10
-121.6
 20
-88.5
 30
0.0
 11
-121.6
 21
-68.0
 31
0.0
  0
LINE
  5
241
330
1F
100
AcDbEntity
  8
0
  6
Continuous
 62
     7
370
    15
100
AcDbLine
 10
-148.4
 20
-68.0
 30
0.0
 11
-148.4
 21
-88.5
 31
0.0
  0
LINE
  5
242
330
1F
100
AcDbEntity
  8
0
  6
Continuous
 62
     7
370
    15
100
AcDbLine
 10
-110.79854578
 20
41.28599492
 30
0.0
 11
-109.98632998
 21
41.21715076
 31
0.0
  0
LINE
  5
243
330
1F
100
AcDbEntity
  8
0
  6
Continuous
 62
     7
370
    15
100
AcDbLine
 10
-112.49539786
 20
40.71758356
 30
0.0
 11
-112.49539786
 21
40.7599406
 31
0.0
  0
LINE
  5
244
330
1F
100
AcDbEntity
  8
0
  6
Continuous
 62
     7
370
    15
100
AcDbLine
 10
-112.49539786
 20
40.7599406
 30
0.0
 11
-112.62434096
 21
40.81115462
 31
0.0
  0
LINE
  5
245
330
1F
100
AcDbEntity
  8
0
  6
Continuous
 62
     7
370
    15
100
AcDbLine
 10
-112.62434096
 20
40.81115462
 30
0.0
 11
-113.21937914
 21
39.39364666
 31
0.0
  0
LINE
  5
246
330
1F
100
AcDbEntity
  8
0
  6
Continuous
 62
     7
370
    15
100
AcDbLine
 10
-113.21937914
 20
39.39364666
 30
0.0
 11
-113.09046398
 21
39.34246058
 31
0.0
  0
LINE
  5
247
330
1F
100
AcDbEntity
  8
0
  6
Continuous
 62
     7
370
    15
100
AcDbLine
 10
-109.76912442
 20
42.54639626
 30
0.0
 11
-110.58664882
 21
42.6081716
 31
0.0
  0
LINE
  5
248
330
1F
100
AcDbEntity
  8
0
  6
Continuous
 62
     7
370
    15
100
AcDbLine
 10
-108.30355966
 20
42.9859204
 30
0.0
 11
-108.17998104
 21
42.9188644
 31
0.0
  0
LINE
  5
249
330
1F
100
AcDbEntity
  8
0
  6
Continuous
 62
     7
370
    15
100
AcDbLine
 10
-108.17998104
 20
42.9188644
 30
0.0
 11
-107.48072666
 21
44.26926048
 31
0.0
  0
LINE
  5
24A
330
1F
100
AcDbEntity
  8
0
  6
Continuous
 62
     7
370
    15
100
AcDbLine
 10
-107.48072666
 20
44.26926048
 30
0.0
 11
-107.60433322
 21
44.33634442
 31
0.0
  0
LINE
  5
24B
330
1F
100
AcDbEntity
  8
0
  6
Continuous
 62
     7
370
    15
100
AcDbLine
 10
-129.85968876
 20
39.14475714
 30
0.0
 11
-129.85968876
 21
39.0
 31
0.0
  0
LINE
  5
24C
330
1F
100
AcDbEntity
  8
0
  6
Continuous
 62
     7
370
    15
100
AcDbLine
 10
-129.85968876
 20
39.0
 30
0.0
 11
-127.4247457
 21
39.0
 31
0.0
  0
LINE
  5
24D
330
1F
100
AcDbEntity
  8
0
  6
Continuous
 62
     7
370
    15
100
AcDbLine
 10
-127.4247457
 20
39.0
 30
0.0
 11
-127.4247457
 21
39.14475714
 31
0.0
  0
LINE
  5
24E
330
1F
100
AcDbEntity
  8
0
  6
Continuous
 62
     7
370
    15
100
AcDbLine
 10
-128.30935404
 20
39.91263216
 30
0.0
 11
-129.40588728
 21
41.4395811
 31
0.0
  0
LINE
  5
24F
330
1F
100
AcDbEntity
  8
0
  6
Continuous
 62
     7
370
    15
100
AcDbLine
 10
-130.22341168
 20
44.79179436
 30
0.0
 11
-134.01975918
 21
44.79179436
 31
0.0
  0
LINE
  5
250
330
1F
100
AcDbEntity
  8
0
  6
Continuous
 62
     7
370
    15
100
AcDbLine
 10
-134.01975918
 20
44.79179436
 30
0.0
 11
-134.01975918
 21
44.64703722
 31
0.0
  0
LINE
  5
251
330
1F
100
AcDbEntity
  8
0
  6
Continuous
 62
     7
370
    15
100
AcDbLine
 10
-133.68783198
 20
44.26397982
 30
0.0
 11
-133.68783198
 21
39.52781454
 31
0.0
  0
LINE
  5
252
330
1F
100
AcDbEntity
  8
0
  6
Continuous
 62
     7
370
    15
100
AcDbLine
 10
-134.01975918
 20
39.14475714
 30
0.0
 11
-134.01975918
 21
39.0
 31
0.0
  0
LINE
  5
253
330
1F
100
AcDbEntity
  8
0
  6
Continuous
 62
     7
370
    15
100
AcDbLine
 10
-134.01975918
 20
39.0
 30
0.0
 11
-131.9697455
 21
39.0
 31
0.0
  0
LINE
  5
254
330
1F
100
AcDbEntity
  8
0
  6
Continuous
 62
     7
370
    15
100
AcDbLine
 10
-131.9697455
 20
39.0
 30
0.0
 11
-131.9697455
 21
39.14475714
 31
0.0
  0
LINE
  5
255
330
1F
100
AcDbEntity
  8
0
  6
Continuous
 62
     7
370
    15
100
AcDbLine
 10
-132.30170064
 20
39.53133498
 30
0.0
 11
-132.30170064
 21
41.37777782
 31
0.0
  0
LINE
  5
256
330
1F
100
AcDbEntity
  8
0
  6
Continuous
 62
     7
370
    15
100
AcDbLine
 10
-132.30170064
 20
41.37777782
 30
0.0
 11
-130.91383702
 21
41.37777782
 31
0.0
  0
LINE
  5
257
330
1F
100
AcDbEntity
  8
0
  6
Continuous
 62
     7
370
    15
100
AcDbLine
 10
-130.91383702
 20
41.37777782
 30
0.0
 11
-129.75552844
 21
39.72199754
 31
0.0
  0
LINE
  5
258
330
1F
100
AcDbEntity
  8
0
  6
Continuous
 62
     7
370
    15
100
AcDbLine
 10
-144.54182348
 20
44.79179436
 30
0.0
 11
-144.54182348
 21
44.64703722
 31
0.0
  0
LINE
  5
259
330
1F
100
AcDbEntity
  8
0
  6
Continuous
 62
     7
370
    15
100
AcDbLine
 10
-144.20989628
 20
44.26397982
 30
0.0
 11
-144.20989628
 21
39.52781454
 31
0.0
  0
LINE
  5
25A
330
1F
100
AcDbEntity
  8
0
  6
Continuous
 62
     7
370
    15
100
AcDbLine
 10
-144.54182348
 20
39.14475714
 30
0.0
 11
-144.54182348
 21
39.0
 31
0.0
  0
LINE
  5
25B
330
1F
100
AcDbEntity
  8
0
  6
Continuous
 62
     7
370
    15
100
AcDbLine
 10
-144.54182348
 20
39.0
 30
0.0
 11
-142.4918098
 21
39.0
 31
0.0
  0
LINE
  5
25C
330
1F
100
AcDbEntity
  8
0
  6
Continuous
 62
     7
370
    15
100
AcDbLine
 10
-142.4918098
 20
39.0
 30
0.0
 11
-142.4918098
 21
39.14475714
 31
0.0
  0
LINE
  5
25D
330
1F
100
AcDbEntity
  8
0
  6
Continuous
 62
     7
370
    15
100
AcDbLine
 10
-142.82376494
 20
39.5330952
 30
0.0
 11
-142.82376494
 21
44.26397982
 31
0.0
  0
LINE
  5
25E
330
1F
100
AcDbEntity
  8
0
  6
Continuous
 62
     7
370
    15
100
AcDbLine
 10
-142.4918098
 20
44.64703722
 30
0.0
 11
-142.4918098
 21
44.79179436
 31
0.0
  0
LINE
  5
25F
330
1F
100
AcDbEntity
  8
0
  6
Continuous
 62
     7
370
    15
100
AcDbLine
 10
-142.4918098
 20
44.79179436
 30
0.0
 11
-144.54182348
 21
44.79179436
 31
0.0
  0
LINE
  5
260
330
1F
100
AcDbEntity
  8
0
  6
Continuous
 62
     7
370
    15
100
AcDbLine
 10
-108.0
 20
36.0
 30
0.0
 11
-152.0
 21
36.0
 31
0.0
  0
LINE
  5
261
330
1F
100
AcDbEntity
  8
0
  6
Continuous
 62
     7
370
    15
100
AcDbLine
 10
-155.0
 20
39.0
 30
0.0
 11
-155.0
 21
51.0
 31
0.0
  0
LINE
  5
262
330
1F
100
AcDbEntity
  8
0
  6
Continuous
 62
     7
370
    15
100
AcDbLine
 10
-152.0
 20
54.0
 30
0.0
 11
-108.0
 21
54.0
 31
0.0
  0
LINE
  5
263
330
1F
100
AcDbEntity
  8
0
  6
Continuous
 62
     7
370
    15
100
AcDbLine
 10
-105.0
 20
51.0
 30
0.0
 11
-105.0
 21
39.0
 31
0.0
  0
LINE
  5
264
330
1F
100
AcDbEntity
  8
0
  6
Continuous
 62
     7
370
    15
100
AcDbLine
 10
-147.12155162
 20
43.9850548
 30
0.0
 11
-146.97148588
 21
43.9073816
 31
0.0
  0
LINE
  5
265
330
1F
100
AcDbEntity
  8
0
  6
Continuous
 62
     7
370
    15
100
AcDbLine
 10
-146.97148588
 20
43.9073816
 30
0.0
 11
-146.1451045
 21
45.59850598
 31
0.0
  0
LINE
  5
266
330
1F
100
AcDbEntity
  8
0
  6
Continuous
 62
     7
370
    15
100
AcDbLine
 10
-146.1451045
 20
45.59850598
 30
0.0
 11
-146.28988958
 21
45.67617918
 31
0.0
  0
LINE
  5
267
330
1F
100
AcDbEntity
  8
0
  6
Continuous
 62
     7
370
    15
100
AcDbLine
 10
-145.61360188
 20
40.02383336
 30
0.0
 11
-145.61360188
 21
40.15272058
 31
0.0
  0
LINE
  5
268
330
1F
100
AcDbEntity
  8
0
  6
Continuous
 62
     7
370
    15
100
AcDbLine
 10
-145.9491054
 20
40.53046938
 30
0.0
 11
-145.9491054
 21
41.9779849
 31
0.0
  0
LINE
  5
269
330
1F
100
AcDbEntity
  8
0
  6
Continuous
 62
     7
370
    15
100
AcDbLine
 10
-145.61360188
 20
42.3557337
 30
0.0
 11
-145.61360188
 21
42.52166936
 31
0.0
  0
LINE
  5
26A
330
1F
100
AcDbEntity
  8
0
  6
Continuous
 62
     7
370
    15
100
AcDbLine
 10
-145.61360188
 20
42.52166936
 30
0.0
 11
-148.9614565
 21
42.52166936
 31
0.0
  0
LINE
  5
26B
330
1F
100
AcDbEntity
  8
0
  6
Continuous
 62
     7
370
    15
100
AcDbLine
 10
-149.33400846
 20
42.85354068
 30
0.0
 11
-149.5
 21
42.85354068
 31
0.0
  0
LINE
  5
26C
330
1F
100
AcDbEntity
  8
0
  6
Continuous
 62
     7
370
    15
100
AcDbLine
 10
-149.5
 20
42.85354068
 30
0.0
 11
-149.5
 21
41.2065615
 31
0.0
  0
LINE
  5
26D
330
1F
100
AcDbEntity
  8
0
  6
Continuous
 62
     7
370
    15
100
AcDbLine
 10
-149.5
 20
41.2065615
 30
0.0
 11
-149.33400846
 21
41.2065615
 31
0.0
  0
LINE
  5
26E
330
1F
100
AcDbEntity
  8
0
  6
Continuous
 62
     7
370
    15
100
AcDbLine
 10
-148.9614565
 20
41.53843282
 30
0.0
 11
-147.2221915
 21
41.53843282
 31
0.0
  0
LINE
  5
26F
330
1F
100
AcDbEntity
  8
0
  6
Continuous
 62
     7
370
    15
100
AcDbLine
 10
-147.2221915
 20
41.53843282
 30
0.0
 11
-147.2221915
 21
40.57813502
 31
0.0
  0
LINE
  5
270
330
1F
100
AcDbEntity
  8
0
  6
Continuous
 62
     7
370
    15
100
AcDbLine
 10
-138.07566928
 20
44.79179436
 30
0.0
 11
-141.47470998
 21
44.79179436
 31
0.0
  0
LINE
  5
271
330
1F
100
AcDbEntity
  8
0
  6
Continuous
 62
     7
370
    15
100
AcDbLine
 10
-141.47470998
 20
44.79179436
 30
0.0
 11
-141.47470998
 21
44.64703722
 31
0.0
  0
LINE
  5
272
330
1F
100
AcDbEntity
  8
0
  6
Continuous
 62
     7
370
    15
100
AcDbLine
 10
-141.14278278
 20
44.26397982
 30
0.0
 11
-141.14278278
 21
39.52781454
 31
0.0
  0
LINE
  5
273
330
1F
100
AcDbEntity
  8
0
  6
Continuous
 62
     7
370
    15
100
AcDbLine
 10
-141.47470998
 20
39.14475714
 30
0.0
 11
-141.47470998
 21
39.0
 31
0.0
  0
LINE
  5
274
330
1F
100
AcDbEntity
  8
0
  6
Continuous
 62
     7
370
    15
100
AcDbLine
 10
-141.47470998
 20
39.0
 30
0.0
 11
-138.07566928
 21
39.0
 31
0.0
  0
LINE
  5
275
330
1F
100
AcDbEntity
  8
0
  6
Continuous
 62
     7
370
    15
100
AcDbLine
 10
-122.41186266
 20
44.79179436
 30
0.0
 11
-122.41186266
 21
44.64703722
 31
0.0
  0
LINE
  5
276
330
1F
100
AcDbEntity
  8
0
  6
Continuous
 62
     7
370
    15
100
AcDbLine
 10
-122.07987958
 20
44.26397982
 30
0.0
 11
-122.07987958
 21
41.47665748
 31
0.0
  0
LINE
  5
277
330
1F
100
AcDbEntity
  8
0
  6
Continuous
 62
     7
370
    15
100
AcDbLine
 10
-125.28822978
 20
41.47665748
 30
0.0
 11
-125.28822978
 21
44.26397982
 31
0.0
  0
LINE
  5
278
330
1F
100
AcDbEntity
  8
0
  6
Continuous
 62
     7
370
    15
100
AcDbLine
 10
-124.9527542
 20
44.64703722
 30
0.0
 11
-124.9527542
 21
44.79179436
 31
0.0
  0
LINE
  5
279
330
1F
100
AcDbEntity
  8
0
  6
Continuous
 62
     7
370
    15
100
AcDbLine
 10
-124.9527542
 20
44.79179436
 30
0.0
 11
-127.00628832
 21
44.79179436
 31
0.0
  0
LINE
  5
27A
330
1F
100
AcDbEntity
  8
0
  6
Continuous
 62
     7
370
    15
100
AcDbLine
 10
-127.00628832
 20
44.79179436
 30
0.0
 11
-127.00628832
 21
44.64703722
 31
0.0
  0
LINE
  5
27B
330
1F
100
AcDbEntity
  8
0
  6
Continuous
 62
     7
370
    15
100
AcDbLine
 10
-126.67433318
 20
44.26397982
 30
0.0
 11
-126.67433318
 21
41.19773246
 31
0.0
  0
LINE
  5
27C
330
1F
100
AcDbEntity
  8
0
  6
Continuous
 62
     7
370
    15
100
AcDbLine
 10
-120.81210208
 20
41.19773246
 30
0.0
 11
-120.81210208
 21
44.26397982
 31
0.0
  0
LINE
  5
27D
330
1F
100
AcDbEntity
  8
0
  6
Continuous
 62
     7
370
    15
100
AcDbLine
 10
-120.480119
 20
44.64703722
 30
0.0
 11
-120.480119
 21
44.79179436
 31
0.0
  0
LINE
  5
27E
330
1F
100
AcDbEntity
  8
0
  6
Continuous
 62
     7
370
    15
100
AcDbLine
 10
-120.480119
 20
44.79179436
 30
0.0
 11
-122.41186266
 21
44.79179436
 31
0.0
  0
LINE
  5
27F
330
1F
100
AcDbEntity
  8
0
  6
Continuous
 62
     7
370
    15
100
AcDbLine
 10
-117.32119466
 20
41.28599492
 30
0.0
 11
-116.50897886
 21
41.21715076
 31
0.0
  0
LINE
  5
280
330
1F
100
AcDbEntity
  8
0
  6
Continuous
 62
     7
370
    15
100
AcDbLine
 10
-119.01804674
 20
40.71758356
 30
0.0
 11
-119.01804674
 21
40.7599406
 31
0.0
  0
LINE
  5
281
330
1F
100
AcDbEntity
  8
0
  6
Continuous
 62
     7
370
    15
100
AcDbLine
 10
-119.01804674
 20
40.7599406
 30
0.0
 11
-119.14698984
 21
40.81115462
 31
0.0
  0
LINE
  5
282
330
1F
100
AcDbEntity
  8
0
  6
Continuous
 62
     7
370
    15
100
AcDbLine
 10
-119.14698984
 20
40.81115462
 30
0.0
 11
-119.74202802
 21
39.39364666
 31
0.0
  0
LINE
  5
283
330
1F
100
AcDbEntity
  8
0
  6
Continuous
 62
     7
370
    15
100
AcDbLine
 10
-119.74202802
 20
39.39364666
 30
0.0
 11
-119.61311286
 21
39.34246058
 31
0.0
  0
LINE
  5
284
330
1F
100
AcDbEntity
  8
0
  6
Continuous
 62
     7
370
    15
100
AcDbLine
 10
-116.2917733
 20
42.54639626
 30
0.0
 11
-117.1092977
 21
42.6081716
 31
0.0
  0
LINE
  5
285
330
1F
100
AcDbEntity
  8
0
  6
Continuous
 62
     7
370
    15
100
AcDbLine
 10
-114.82620854
 20
42.9859204
 30
0.0
 11
-114.70262992
 21
42.9188644
 31
0.0
  0
LINE
  5
286
330
1F
100
AcDbEntity
  8
0
  6
Continuous
 62
     7
370
    15
100
AcDbLine
 10
-114.70262992
 20
42.9188644
 30
0.0
 11
-114.00337554
 21
44.26926048
 31
0.0
  0
LINE
  5
287
330
1F
100
AcDbEntity
  8
0
  6
Continuous
 62
     7
370
    15
100
AcDbLine
 10
-114.00337554
 20
44.26926048
 30
0.0
 11
-114.1269821
 21
44.33634442
 31
0.0
  0
LINE
  5
288
330
1F
100
AcDbEntity
  8
0
  6
Continuous
 62
     7
370
    15
100
AcDbLine
 10
-139.75665144
 20
40.05032048
 30
0.0
 11
-138.27694904
 21
40.05032048
 31
0.0
  0
LINE
  5
289
330
1F
100
AcDbEntity
  8
0
  6
Continuous
 62
     7
370
    15
100
AcDbLine
 10
-139.75665144
 20
43.74144594
 30
0.0
 11
-139.75665144
 21
40.05032048
 31
0.0
  0
LINE
  5
28A
330
1F
100
AcDbEntity
  8
0
  6
Continuous
 62
     7
370
    15
100
AcDbLine
 10
-138.27694904
 20
43.74144594
 30
0.0
 11
-139.75665144
 21
43.74144594
 31
0.0
  0
LINE
  5
28B
330
1F
100
AcDbEntity
  8
0
  6
Continuous
 62
     7
370
    15
100
AcDbLine
 10
-132.30170064
 20
42.42812624
 30
0.0
 11
-130.21282242
 21
42.42812624
 31
0.0
  0
LINE
  5
28C
330
1F
100
AcDbEntity
  8
0
  6
Continuous
 62
     7
370
    15
100
AcDbLine
 10
-132.30170064
 20
43.74144594
 30
0.0
 11
-132.30170064
 21
42.42812624
 31
0.0
  0
LINE
  5
28D
330
1F
100
AcDbEntity
  8
0
  6
Continuous
 62
     7
370
    15
100
AcDbLine
 10
-130.21282242
 20
43.74144594
 30
0.0
 11
-132.30170064
 21
43.74144594
 31
0.0
  0
LINE
  5
28E
330
1F
100
AcDbEntity
  8
0
  6
Continuous
 62
     7
370
    15
100
AcDbLine
 10
-165.0
 20
28.0
 30
0.0
 11
165.0
 21
28.0
 31
0.0
  0
LINE
  5
28F
330
1F
100
AcDbEntity
  8
0
  6
Continuous
 62
     7
370
    15
100
AcDbLine
 10
-162.0
 20
65.0
 30
0.0
 11
-162.0
 21
25.0
 31
0.0
  0
LINE
  5
290
330
1F
100
AcDbEntity
  8
0
  6
Continuous
 62
     7
370
    15
100
AcDbLine
 10
165.0
 20
62.0
 30
0.0
 11
-165.0
 21
62.0
 31
0.0
  0
LINE
  5
291
330
1F
100
AcDbEntity
  8
0
  6
Continuous
 62
     7
370
    15
100
AcDbLine
 10
162.0
 20
25.0
 30
0.0
 11
162.0
 21
65.0
 31
0.0
  0
LINE
  5
292
330
1F
100
AcDbEntity
  8
0
  6
Continuous
 62
     7
370
    15
100
AcDbLine
 10
162.0
 20
-65.0
 30
0.0
 11
162.0
 21
-25.0
 31
0.0
  0
LINE
  5
293
330
1F
100
AcDbEntity
  8
0
  6
Continuous
 62
     7
370
    15
100
AcDbLine
 10
165.0
 20
-28.0
 30
0.0
 11
-165.0
 21
-28.0
 31
0.0
  0
LINE
  5
294
330
1F
100
AcDbEntity
  8
0
  6
Continuous
 62
     7
370
    15
100
AcDbLine
 10
165.0
 20
-28.0
 30
0.0
 11
165.0
 21
-62.0
 31
0.0
  0
LINE
  5
295
330
1F
100
AcDbEntity
  8
0
  6
Continuous
 62
     7
370
    15
100
AcDbLine
 10
-165.0
 20
28.0
 30
0.0
 11
-165.0
 21
62.0
 31
0.0
  0
LINE
  5
296
330
1F
100
AcDbEntity
  8
0
  6
Continuous
 62
     7
370
    15
100
AcDbLine
 10
-165.0
 20
-62.0
 30
0.0
 11
165.0
 21
-62.0
 31
0.0
  0
LINE
  5
297
330
1F
100
AcDbEntity
  8
0
  6
Continuous
 62
     7
370
    15
100
AcDbLine
 10
-162.0
 20
-25.0
 30
0.0
 11
-162.0
 21
-65.0
 31
0.0
  0
LINE
  5
298
330
1F
100
AcDbEntity
  8
0
  6
Continuous
 62
     7
370
    15
100
AcDbLine
 10
-162.0
 20
-25.0
 30
0.0
 11
162.0
 21
-25.0
 31
0.0
  0
LINE
  5
299
330
1F
100
AcDbEntity
  8
0
  6
Continuous
 62
     7
370
    15
100
AcDbLine
 10
162.0
 20
25.0
 30
0.0
 11
-162.0
 21
25.0
 31
0.0
  0
LINE
  5
29A
330
1F
100
AcDbEntity
  8
0
  6
Continuous
 62
     7
370
    15
100
AcDbLine
 10
165.0
 20
62.0
 30
0.0
 11
165.0
 21
28.0
 31
0.0
  0
LINE
  5
29B
330
1F
100
AcDbEntity
  8
0
  6
Continuous
 62
     7
370
    15
100
AcDbLine
 10
-162.0
 20
65.0
 30
0.0
 11
162.0
 21
65.0
 31
0.0
  0
LINE
  5
29C
330
1F
100
AcDbEntity
  8
0
  6
Continuous
 62
     7
370
    15
100
AcDbLine
 10
-165.0
 20
-62.0
 30
0.0
 11
-165.0
 21
-28.0
 31
0.0
  0
LINE
  5
29D
330
1F
100
AcDbEntity
  8
0
  6
Continuous
 62
     7
370
    15
100
AcDbLine
 10
162.0
 20
-65.0
 30
0.0
 11
-162.0
 21
-65.0
 31
0.0
  0
LINE
  5
29E
330
1F
100
AcDbEntity
  8
0
  6
Continuous
 62
     7
370
    15
100
AcDbLine
 10
192.5
 20
-58.4
 30
0.0
 11
192.5
 21
-31.6
 31
0.0
  0
LINE
  5
29F
330
1F
100
AcDbEntity
  8
0
  6
Continuous
 62
     7
370
    15
100
AcDbLine
 10
193.0
 20
-32.1
 30
0.0
 11
193.0
 21
-57.9
 31
0.0
  0
LINE
  5
2A0
330
1F
100
AcDbEntity
  8
0
  6
Continuous
 62
     7
370
    15
100
AcDbLine
 10
-192.5
 20
-31.6
 30
0.0
 11
-192.5
 21
-58.4
 31
0.0
  0
LINE
  5
2A1
330
1F
100
AcDbEntity
  8
0
  6
Continuous
 62
     7
370
    15
100
AcDbLine
 10
-193.0
 20
-57.9
 30
0.0
 11
-193.0
 21
-32.1
 31
0.0
  0
LINE
  5
2A2
330
1F
100
AcDbEntity
  8
0
  6
Continuous
 62
     7
370
    15
100
AcDbLine
 10
-192.5
 20
58.4
 30
0.0
 11
-192.5
 21
31.6
 31
0.0
  0
LINE
  5
2A3
330
1F
100
AcDbEntity
  8
0
  6
Continuous
 62
     7
370
    15
100
AcDbLine
 10
192.5
 20
31.6
 30
0.0
 11
192.5
 21
58.4
 31
0.0
  0
LINE
  5
2A4
330
1F
100
AcDbEntity
  8
0
  6
Continuous
 62
     7
370
    15
100
AcDbLine
 10
193.0
 20
57.9
 30
0.0
 11
193.0
 21
32.1
 31
0.0
  0
LINE
  5
2A5
330
1F
100
AcDbEntity
  8
0
  6
Continuous
 62
     7
370
    15
100
AcDbLine
 10
-193.0
 20
32.1
 30
0.0
 11
-193.0
 21
57.9
 31
0.0
  0
LINE
  5
2A6
330
1F
100
AcDbEntity
  8
0
  6
Continuous
 62
     7
370
    15
100
AcDbLine
 10
148.4
 20
88.5
 30
0.0
 11
121.6
 21
88.5
 31
0.0
  0
LINE
  5
2A7
330
1F
100
AcDbEntity
  8
0
  6
Continuous
 62
     7
370
    15
100
AcDbLine
 10
-121.6
 20
88.5
 30
0.0
 11
-148.4
 21
88.5
 31
0.0
  0
LINE
  5
2A8
330
1F
100
AcDbEntity
  8
0
  6
Continuous
 62
     7
370
    15
100
AcDbLine
 10
122.1
 20
89.0
 30
0.0
 11
147.9
 21
89.0
 31
0.0
  0
LINE
  5
2A9
330
1F
100
AcDbEntity
  8
0
  6
Continuous
 62
     7
370
    15
100
AcDbLine
 10
-147.9
 20
89.0
 30
0.0
 11
-122.1
 21
89.0
 31
0.0
  0
LINE
  5
2AA
330
1F
100
AcDbEntity
  8
0
  6
Continuous
 62
     7
370
    15
100
AcDbLine
 10
121.6
 20
-88.5
 30
0.0
 11
148.4
 21
-88.5
 31
0.0
  0
LINE
  5
2AB
330
1F
100
AcDbEntity
  8
0
  6
Continuous
 62
     7
370
    15
100
AcDbLine
 10
-122.1
 20
-89.0
 30
0.0
 11
-147.9
 21
-89.0
 31
0.0
  0
LINE
  5
2AC
330
1F
100
AcDbEntity
  8
0
  6
Continuous
 62
     7
370
    15
100
AcDbLine
 10
-148.4
 20
-88.5
 30
0.0
 11
-121.6
 21
-88.5
 31
0.0
  0
LINE
  5
2AD
330
1F
100
AcDbEntity
  8
0
  6
Continuous
 62
     7
370
    15
100
AcDbLine
 10
147.9
 20
-89.0
 30
0.0
 11
122.1
 21
-89.0
 31
0.0
  0
LINE
  5
2AE
330
1F
100
AcDbEntity
  8
0
  6
Continuous
 62
     7
370
    15
100
AcDbLine
 10
-58.4
 20
-88.5
 30
0.0
 11
-31.6
 21
-88.5
 31
0.0
  0
LINE
  5
2AF
330
1F
100
AcDbEntity
  8
0
  6
Continuous
 62
     7
370
    15
100
AcDbLine
 10
57.9
 20
-89.0
 30
0.0
 11
32.1
 21
-89.0
 31
0.0
  0
LINE
  5
2B0
330
1F
100
AcDbEntity
  8
0
  6
Continuous
 62
     7
370
    15
100
AcDbLine
 10
31.6
 20
-88.5
 30
0.0
 11
58.4
 21
-88.5
 31
0.0
  0
LINE
  5
2B1
330
1F
100
AcDbEntity
  8
0
  6
Continuous
 62
     7
370
    15
100
AcDbLine
 10
-32.1
 20
-89.0
 30
0.0
 11
-57.9
 21
-89.0
 31
0.0
  0
LINE
  5
2B2
330
1F
100
AcDbEntity
  8
0
  6
Continuous
 62
     8
370
    15
100
AcDbLine
 10
168.0
 20
-31.6
 30
0.0
 11
168.0
 21
-58.4
 31
0.0
  0
LINE
  5
2B3
330
1F
100
AcDbEntity
  8
0
  6
Continuous
 62
     8
370
    15
100
AcDbLine
 10
-168.0
 20
-58.4
 30
0.0
 11
-168.0
 21
-31.6
 31
0.0
  0
LINE
  5
2B4
330
1F
100
AcDbEntity
  8
0
  6
Continuous
 62
     8
370
    15
100
AcDbLine
 10
-168.0
 20
31.6
 30
0.0
 11
-168.0
 21
58.4
 31
0.0
  0
LINE
  5
2B5
330
1F
100
AcDbEntity
  8
0
  6
Continuous
 62
     8
370
    15
100
AcDbLine
 10
168.0
 20
58.4
 30
0.0
 11
168.0
 21
31.6
 31
0.0
  0
LINE
  5
2B6
330
1F
100
AcDbEntity
  8
0
  6
Continuous
 62
     8
370
    15
100
AcDbLine
 10
121.6
 20
-22.0
 30
0.0
 11
148.4
 21
-22.0
 31
0.0
  0
LINE
  5
2B7
330
1F
100
AcDbEntity
  8
0
  6
Continuous
 62
     8
370
    15
100
AcDbLine
 10
-148.4
 20
68.0
 30
0.0
 11
-121.6
 21
68.0
 31
0.0
  0
LINE
  5
2B8
330
1F
100
AcDbEntity
  8
0
  6
Continuous
 62
     8
370
    15
100
AcDbLine
 10
-148.4
 20
-22.0
 30
0.0
 11
-121.6
 21
-22.0
 31
0.0
  0
LINE
  5
2B9
330
1F
100
AcDbEntity
  8
0
  6
Continuous
 62
     8
370
    15
100
AcDbLine
 10
-58.4
 20
-22.0
 30
0.0
 11
-31.6
 21
-22.0
 31
0.0
  0
LINE
  5
2BA
330
1F
100
AcDbEntity
  8
0
  6
Continuous
 62
     8
370
    15
100
AcDbLine
 10
-121.6
 20
22.0
 30
0.0
 11
-148.4
 21
22.0
 31
0.0
  0
LINE
  5
2BB
330
1F
100
AcDbEntity
  8
0
  6
Continuous
 62
     8
370
    15
100
AcDbLine
 10
148.4
 20
22.0
 30
0.0
 11
121.6
 21
22.0
 31
0.0
  0
LINE
  5
2BC
330
1F
100
AcDbEntity
  8
0
  6
Continuous
 62
     8
370
    15
100
AcDbLine
 10
121.6
 20
68.0
 30
0.0
 11
148.4
 21
68.0
 31
0.0
  0
LINE
  5
2BD
330
1F
100
AcDbEntity
  8
0
  6
Continuous
 62
     8
370
    15
100
AcDbLine
 10
-31.6
 20
22.0
 30
0.0
 11
-58.4
 21
22.0
 31
0.0
  0
LINE
  5
2BE
330
1F
100
AcDbEntity
  8
0
  6
Continuous
 62
     8
370
    15
100
AcDbLine
 10
58.4
 20
-68.0
 30
0.0
 11
31.6
 21
-68.0
 31
0.0
  0
LINE
  5
2BF
330
1F
100
AcDbEntity
  8
0
  6
Continuous
 62
     8
370
    15
100
AcDbLine
 10
-31.6
 20
-68.0
 30
0.0
 11
-58.4
 21
-68.0
 31
0.0
  0
LINE
  5
2C0
330
1F
100
AcDbEntity
  8
0
  6
Continuous
 62
     8
370
    15
100
AcDbLine
 10
148.4
 20
-68.0
 30
0.0
 11
121.6
 21
-68.0
 31
0.0
  0
LINE
  5
2C1
330
1F
100
AcDbEntity
  8
0
  6
Continuous
 62
     8
370
    15
100
AcDbLine
 10
-121.6
 20
-68.0
 30
0.0
 11
-148.4
 21
-68.0
 31
0.0
  0
ARC
  5
2C2
330
1F
100
AcDbEntity
  8
0
  6
Continuous
 62
     7
370
    15
100
AcDbCircle
 10
168.0
 20
-28.6
 30
0.0
 40
3.0
100
AcDbArc
 50
180.0
 51
270.0
  0
ARC
  5
2C3
330
1F
100
AcDbEntity
  8
0
  6
Continuous
 62
     7
370
    15
100
AcDbCircle
 10
168.0
 20
-61.4
 30
0.0
 40
3.0
100
AcDbArc
 50
90.0
 51
180.0
  0
ARC
  5
2C4
330
1F
100
AcDbEntity
  8
0
  6
Continuous
 62
     7
370
    15
100
AcDbCircle
 10
-168.0
 20
-61.4
 30
0.0
 40
2.999999999999979
100
AcDbArc
 50
0.0
 51
90.0
  0
ARC
  5
2C5
330
1F
100
AcDbEntity
  8
0
  6
Continuous
 62
     7
370
    15
100
AcDbCircle
 10
-168.0
 20
-28.6
 30
0.0
 40
2.999999999999972
100
AcDbArc
 50
270.0
 51
0.0
  0
ARC
  5
2C6
330
1F
100
AcDbEntity
  8
0
  6
Continuous
 62
     7
370
    15
100
AcDbCircle
 10
-168.0
 20
28.6
 30
0.0
 40
3.0
100
AcDbArc
 50
0.0
 51
90.0
  0
ARC
  5
2C7
330
1F
100
AcDbEntity
  8
0
  6
Continuous
 62
     7
370
    15
100
AcDbCircle
 10
-168.0
 20
61.4
 30
0.0
 40
3.0
100
AcDbArc
 50
270.0
 51
0.0
  0
ARC
  5
2C8
330
1F
100
AcDbEntity
  8
0
  6
Continuous
 62
     7
370
    15
100
AcDbCircle
 10
168.0
 20
61.4
 30
0.0
 40
3.0
100
AcDbArc
 50
180.0
 51
270.0
  0
ARC
  5
2C9
330
1F
100
AcDbEntity
  8
0
  6
Continuous
 62
     7
370
    15
100
AcDbCircle
 10
168.0
 20
28.6
 30
0.0
 40
3.0
100
AcDbArc
 50
90.0
 51
180.0
  0
ARC
  5
2CA
330
1F
100
AcDbEntity
  8
0
  6
Continuous
 62
     7
370
    15
100
AcDbCircle
 10
118.6
 20
-22.0
 30
0.0
 40
2.999999999999975
100
AcDbArc
 50
270.0
 51
0.0
  0
ARC
  5
2CB
330
1F
100
AcDbEntity
  8
0
  6
Continuous
 62
     7
370
    15
100
AcDbCircle
 10
151.4
 20
-22.0
 30
0.0
 40
2.999999999999979
100
AcDbArc
 50
180.0
 51
270.0
  0
ARC
  5
2CC
330
1F
100
AcDbEntity
  8
0
  6
Continuous
 62
     7
370
    15
100
AcDbCircle
 10
-151.4
 20
68.0
 30
0.0
 40
3.000000000000028
100
AcDbArc
 50
270.0
 51
0.0
  0
ARC
  5
2CD
330
1F
100
AcDbEntity
  8
0
  6
Continuous
 62
     7
370
    15
100
AcDbCircle
 10
-118.6
 20
68.0
 30
0.0
 40
3.0
100
AcDbArc
 50
180.0
 51
270.0
  0
ARC
  5
2CE
330
1F
100
AcDbEntity
  8
0
  6
Continuous
 62
     7
370
    15
100
AcDbCircle
 10
-151.4
 20
-22.0
 30
0.0
 40
3.000000000000028
100
AcDbArc
 50
270.0
 51
0.0
  0
ARC
  5
2CF
330
1F
100
AcDbEntity
  8
0
  6
Continuous
 62
     7
370
    15
100
AcDbCircle
 10
-118.6
 20
-22.0
 30
0.0
 40
2.999999999999986
100
AcDbArc
 50
180.0
 51
270.0
  0
ARC
  5
2D0
330
1F
100
AcDbEntity
  8
0
  6
Continuous
 62
     7
370
    15
100
AcDbCircle
 10
-61.4
 20
-22.0
 30
0.0
 40
3.0
100
AcDbArc
 50
270.0
 51
0.0
  0
ARC
  5
2D1
330
1F
100
AcDbEntity
  8
0
  6
Continuous
 62
     7
370
    15
100
AcDbCircle
 10
-28.6
 20
-22.0
 30
0.0
 40
2.999999999999989
100
AcDbArc
 50
180.0
 51
270.0
  0
ARC
  5
2D2
330
1F
100
AcDbEntity
  8
0
  6
Continuous
 62
     7
370
    15
100
AcDbCircle
 10
-118.6
 20
22.0
 30
0.0
 40
2.999999999999975
100
AcDbArc
 50
90.0
 51
180.0
  0
ARC
  5
2D3
330
1F
100
AcDbEntity
  8
0
  6
Continuous
 62
     7
370
    15
100
AcDbCircle
 10
-151.4
 20
22.0
 30
0.0
 40
2.999999999999979
100
AcDbArc
 50
0.0
 51
90.0
  0
ARC
  5
2D4
330
1F
100
AcDbEntity
  8
0
  6
Continuous
 62
     7
370
    15
100
AcDbCircle
 10
151.4
 20
22.0
 30
0.0
 40
3.000000000000028
100
AcDbArc
 50
90.0
 51
180.0
  0
ARC
  5
2D5
330
1F
100
AcDbEntity
  8
0
  6
Continuous
 62
     7
370
    15
100
AcDbCircle
 10
118.6
 20
22.0
 30
0.0
 40
2.999999999999986
100
AcDbArc
 50
0.0
 51
90.0
  0
ARC
  5
2D6
330
1F
100
AcDbEntity
  8
0
  6
Continuous
 62
     7
370
    15
100
AcDbCircle
 10
118.6
 20
68.0
 30
0.0
 40
3.0
100
AcDbArc
 50
270.0
 51
0.0
  0
ARC
  5
2D7
330
1F
100
AcDbEntity
  8
0
  6
Continuous
 62
     7
370
    15
100
AcDbCircle
 10
151.4
 20
68.0
 30
0.0
 40
3.0
100
AcDbArc
 50
180.0
 51
270.0
  0
ARC
  5
2D8
330
1F
100
AcDbEntity
  8
0
  6
Continuous
 62
     7
370
    15
100
AcDbCircle
 10
-28.6
 20
22.0
 30
0.0
 40
2.999999999999989
100
AcDbArc
 50
90.0
 51
180.0
  0
ARC
  5
2D9
330
1F
100
AcDbEntity
  8
0
  6
Continuous
 62
     7
370
    15
100
AcDbCircle
 10
-61.4
 20
22.0
 30
0.0
 40
3.000000000000014
100
AcDbArc
 50
0.0
 51
90.0
  0
ARC
  5
2DA
330
1F
100
AcDbEntity
  8
0
  6
Continuous
 62
     7
370
    15
100
AcDbCircle
 10
61.4
 20
-68.0
 30
0.0
 40
3.000000000000028
100
AcDbArc
 50
90.0
 51
180.0
  0
ARC
  5
2DB
330
1F
100
AcDbEntity
  8
0
  6
Continuous
 62
     7
370
    15
100
AcDbCircle
 10
28.6
 20
-68.0
 30
0.0
 40
3.000000000000014
100
AcDbArc
 50
0.0
 51
90.0
  0
ARC
  5
2DC
330
1F
100
AcDbEntity
  8
0
  6
Continuous
 62
     7
370
    15
100
AcDbCircle
 10
-28.6
 20
-68.0
 30
0.0
 40
3.000000000000028
100
AcDbArc
 50
90.0
 51
180.0
  0
ARC
  5
2DD
330
1F
100
AcDbEntity
  8
0
  6
Continuous
 62
     7
370
    15
100
AcDbCircle
 10
-61.4
 20
-68.0
 30
0.0
 40
3.000000000000021
100
AcDbArc
 50
0.0
 51
90.0
  0
ARC
  5
2DE
330
1F
100
AcDbEntity
  8
0
  6
Continuous
 62
     7
370
    15
100
AcDbCircle
 10
151.4
 20
-68.0
 30
0.0
 40
3.000000000000057
100
AcDbArc
 50
90.0
 51
180.0
  0
ARC
  5
2DF
330
1F
100
AcDbEntity
  8
0
  6
Continuous
 62
     7
370
    15
100
AcDbCircle
 10
118.6
 20
-68.0
 30
0.0
 40
3.0
100
AcDbArc
 50
0.0
 51
90.0
  0
ARC
  5
2E0
330
1F
100
AcDbEntity
  8
0
  6
Continuous
 62
     7
370
    15
100
AcDbCircle
 10
-118.6
 20
-68.0
 30
0.0
 40
3.0
100
AcDbArc
 50
90.0
 51
180.0
  0
ARC
  5
2E1
330
1F
100
AcDbEntity
  8
0
  6
Continuous
 62
     7
370
    15
100
AcDbCircle
 10
-151.4
 20
-68.0
 30
0.0
 40
3.000000000000057
100
AcDbArc
 50
0.0
 51
90.0
  0
ARC
  5
2E2
330
1F
100
AcDbEntity
  8
0
  6
Continuous
 62
     7
370
    15
100
AcDbCircle
 10
-108.0
 20
39.0
 30
0.0
 40
2.999999999999986
100
AcDbArc
 50
270.0
 51
0.0
  0
ARC
  5
2E3
330
1F
100
AcDbEntity
  8
0
  6
Continuous
 62
     7
370
    15
100
AcDbCircle
 10
-152.0
 20
39.0
 30
0.0
 40
3.000000000000028
100
AcDbArc
 50
180.0
 51
270.0
  0
ARC
  5
2E4
330
1F
100
AcDbEntity
  8
0
  6
Continuous
 62
     7
370
    15
100
AcDbCircle
 10
-152.0
 20
51.0
 30
0.0
 40
3.000000000000028
100
AcDbArc
 50
90.0
 51
180.0
  0
ARC
  5
2E5
330
1F
100
AcDbEntity
  8
0
  6
Continuous
 62
     7
370
    15
100
AcDbCircle
 10
-108.0
 20
51.0
 30
0.0
 40
3.0
100
AcDbArc
 50
0.0
 51
90.0
  0
ARC
  5
2E6
330
1F
100
AcDbEntity
  8
0
  6
Continuous
 62
     7
370
    15
100
AcDbCircle
 10
-162.0
 20
28.0
 30
0.0
 40
3.000000000000053
100
AcDbArc
 50
180.0
 51
270.0
  0
ARC
  5
2E7
330
1F
100
AcDbEntity
  8
0
  6
Continuous
 62
     7
370
    15
100
AcDbCircle
 10
162.0
 20
-28.0
 30
0.0
 40
3.000000000000007
100
AcDbArc
 50
0.0
 51
90.0
  0
ARC
  5
2E8
330
1F
100
AcDbEntity
  8
0
  6
Continuous
 62
     7
370
    15
100
AcDbCircle
 10
-162.0
 20
-62.0
 30
0.0
 40
3.000000000000007
100
AcDbArc
 50
180.0
 51
270.0
  0
ARC
  5
2E9
330
1F
100
AcDbEntity
  8
0
  6
Continuous
 62
     7
370
    15
100
AcDbCircle
 10
162.0
 20
62.0
 30
0.0
 40
3.000000000000007
100
AcDbArc
 50
0.0
 51
90.0
  0
ARC
  5
2EA
330
1F
100
AcDbEntity
  8
0
  6
Continuous
 62
     7
370
    15
100
AcDbCircle
 10
-162.0
 20
62.0
 30
0.0
 40
3.000000000000007
100
AcDbArc
 50
90.0
 51
180.0
  0
ARC
  5
2EB
330
1F
100
AcDbEntity
  8
0
  6
Continuous
 62
     7
370
    15
100
AcDbCircle
 10
162.0
 20
-62.0
 30
0.0
 40
3.000000000000007
100
AcDbArc
 50
270.0
 51
0.0
  0
ARC
  5
2EC
330
1F
100
AcDbEntity
  8
0
  6
Continuous
 62
     7
370
    15
100
AcDbCircle
 10
162.0
 20
28.0
 30
0.0
 40
3.0
100
AcDbArc
 50
270.0
 51
0.0
  0
ARC
  5
2ED
330
1F
100
AcDbEntity
  8
0
  6
Continuous
 62
     7
370
    15
100
AcDbCircle
 10
-162.0
 20
-28.0
 30
0.0
 40
3.000000000000036
100
AcDbArc
 50
90.0
 51
180.0
  0
ENDSEC
  0
SECTION
  2
OBJECTS
  0
DICTIONARY
  5
C
330
0
100
AcDbDictionary
281
     1
  3
ACAD_GROUP
350
D
  3
ACAD_LAYOUT
350
1A
  3
ACAD_MLINESTYLE
350
17
  3
ACAD_PLOTSETTINGS
350
19
  3
ACAD_PLOTSTYLENAME
350
E
  3
ACAD_SCALELIST
350
47
  0
DICTIONARY
  5
D
102
{ACAD_REACTORS
330
C
102
}
330
C
100
AcDbDictionary
281
     1
  0
DICTIONARY
  5
1A
102
{ACAD_REACTORS
330
C
102
}
330
C
100
AcDbDictionary
281
     1
  3
Layout1
350
1E
  3
Layout2
350
26
  3
Model
350
22
  0
DICTIONARY
  5
17
102
{ACAD_REACTORS
330
C
102
}
330
C
100
AcDbDictionary
281
     1
  3
Standard
350
18
  0
DICTIONARY
  5
19
102
{ACAD_REACTORS
330
C
102
}
330
C
100
AcDbDictionary
281
     1
  0
ACDBDICTIONARYWDFLT
  5
E
102
{ACAD_REACTORS
330
C
102
}
330
C
100
AcDbDictionary
281
     1
  3
Normal
350
F
100
AcDbDictionaryWithDefault
340
F
  0
DICTIONARY
  5
47
102
{ACAD_REACTORS
330
C
102
}
330
C
100
AcDbDictionary
281
     1
  3
A0
350
48
  3
A1
350
49
  3
A2
350
4A
  3
A3
350
4B
  3
A4
350
4C
  3
A5
350
4D
  3
A6
350
4E
  3
A7
350
4F
  3
A8
350
50
  3
A9
350
51
  3
B0
350
52
  3
B1
350
53
  3
B2
350
54
  3
B3
350
55
  3
B4
350
56
  3
B5
350
57
  3
B6
350
58
  3
B7
350
59
  3
B8
350
5A
  3
B9
350
5B
  3
C0
350
5C
  3
C1
350
5D
  3
C2
350
5E
  3
C3
350
5F
  3
C4
350
60
  3
C5
350
61
  3
C6
350
62
  3
C7
350
63
  3
C8
350
64
  3
C9
350
65
  3
D0
350
66
  3
D1
350
67
  3
D2
350
68
  0
LAYOUT
  5
1E
102
{ACAD_REACTORS
330
1A
102
}
330
1A
100
AcDbPlotSettings
  1

  2
none_device
  4

  6

 40
0.0
 41
0.0
 42
0.0
 43
0.0
 44
0.0
 45
0.0
 46
0.0
 47
0.0
 48
0.0
 49
0.0
140
0.0
141
0.0
142
1.0
143
1.0
 70
   688
 72
     1
 73
     0
 74
     5
  7

 75
    16
147
1.0
148
0.0
149
0.0
100
AcDbLayout
  1
Layout1
 70
     1
 71
     1
 10
0.0
 20
0.0
 11
420.0
 21
297.0
 12
0.0
 22
0.0
 32
0.0
 14
1.0000000000E+20
 24
1.0000000000E+20
 34
1.0000000000E+20
 15
-1.0000000000E+20
 25
-1.0000000000E+20
 35
-1.0000000000E+20
146
0.0
 13
0.0
 23
0.0
 33
0.0
 16
1.0
 26
0.0
 36
0.0
 17
0.0
 27
1.0
 37
0.0
 76
     0
330
1B
  0
LAYOUT
  5
26
102
{ACAD_REACTORS
330
1A
102
}
330
1A
100
AcDbPlotSettings
  1

  2
none_device
  4

  6

 40
0.0
 41
0.0
 42
0.0
 43
0.0
 44
0.0
 45
0.0
 46
0.0
 47
0.0
 48
0.0
 49
0.0
140
0.0
141
0.0
142
1.0
143
1.0
 70
   688
 72
     1
 73
     0
 74
     5
  7

 75
    16
147
1.0
148
0.0
149
0.0
100
AcDbLayout
  1
Layout2
 70
     1
 71
     2
 10
0.0
 20
0.0
 11
0.0
 21
0.0
 12
0.0
 22
0.0
 32
0.0
 14
0.0
 24
0.0
 34
0.0
 15
0.0
 25
0.0
 35
0.0
146
0.0
 13
0.0
 23
0.0
 33
0.0
 16
1.0
 26
0.0
 36
0.0
 17
0.0
 27
1.0
 37
0.0
 76
     0
330
23
  0
LAYOUT
  5
22
102
{ACAD_REACTORS
330
1A
102
}
330
1A
100
AcDbPlotSettings
  1

  2
none_device
  4
ANSI_A_(11.00_x_8.50_Inches)
  6

 40
6.35
 41
19.05
 42
6.35000508
 43
19.05000254
 44
279.4
 45
215.9
 46
133.34999746
 47
88.89999873
 48
0.0
 49
0.0
140
0.0
141
0.0
142
0.0282124352
143
1.0
 70
  1696
 72
     0
 73
     0
 74
     0
  7

 75
     0
147
0.0179189148
148
-1300.4909072572
149
0.0
100
AcDbLayout
  1
Model
 70
     1
 71
     0
 10
0.0
 20
0.0
 11
420.0
 21
297.0
 12
0.0
 22
0.0
 32
0.0
 14
-193.0
 24
-89.0
 34
0.0
 15
193.0
 25
89.0
 35
0.0
146
0.0
 13
0.0
 23
0.0
 33
0.0
 16
1.0
 26
0.0
 36
0.0
 17
0.0
 27
1.0
 37
0.0
 76
     0
330
1F
331
29
  0
MLINESTYLE
  5
18
102
{ACAD_REACTORS
330
17
102
}
330
17
100
AcDbMlineStyle
  2
Standard
 70
     0
  3

 62
   256
 51
90.0
 52
90.0
 71
     2
 49
0.5
 62
   256
  6
BYLAYER
 49
-0.5
 62
   256
  6
BYLAYER
  0
ACDBPLACEHOLDER
  5
F
102
{ACAD_REACTORS
330
E
102
}
330
E
  0
SCALE
  5
48
102
{ACAD_REACTORS
330
47
102
}
330
47
100
AcDbScale
 70
     0
300
1:1
140
1.0
141
1.0
290
     1
  0
SCALE
  5
49
102
{ACAD_REACTORS
330
47
102
}
330
47
100
AcDbScale
 70
     0
300
1:2
140
1.0
141
2.0
290
     0
  0
SCALE
  5
4A
102
{ACAD_REACTORS
330
47
102
}
330
47
100
AcDbScale
 70
     0
300
1:4
140
1.0
141
4.0
290
     0
  0
SCALE
  5
4B
102
{ACAD_REACTORS
330
47
102
}
330
47
100
AcDbScale
 70
     0
300
1:5
140
1.0
141
5.0
290
     0
  0
SCALE
  5
4C
102
{ACAD_REACTORS
330
47
102
}
330
47
100
AcDbScale
 70
     0
300
1:8
140
1.0
141
8.0
290
     0
  0
SCALE
  5
4D
102
{ACAD_REACTORS
330
47
102
}
330
47
100
AcDbScale
 70
     0
300
1:10
140
1.0
141
10.0
290
     0
  0
SCALE
  5
4E
102
{ACAD_REACTORS
330
47
102
}
330
47
100
AcDbScale
 70
     0
300
1:16
140
1.0
141
16.0
290
     0
  0
SCALE
  5
4F
102
{ACAD_REACTORS
330
47
102
}
330
47
100
AcDbScale
 70
     0
300
1:20
140
1.0
141
20.0
290
     0
  0
SCALE
  5
50
102
{ACAD_REACTORS
330
47
102
}
330
47
100
AcDbScale
 70
     0
300
1:30
140
1.0
141
30.0
290
     0
  0
SCALE
  5
51
102
{ACAD_REACTORS
330
47
102
}
330
47
100
AcDbScale
 70
     0
300
1:40
140
1.0
141
40.0
290
     0
  0
SCALE
  5
52
102
{ACAD_REACTORS
330
47
102
}
330
47
100
AcDbScale
 70
     0
300
1:50
140
1.0
141
50.0
290
     0
  0
SCALE
  5
53
102
{ACAD_REACTORS
330
47
102
}
330
47
100
AcDbScale
 70
     0
300
1:100
140
1.0
141
100.0
290
     0
  0
SCALE
  5
54
102
{ACAD_REACTORS
330
47
102
}
330
47
100
AcDbScale
 70
     0
300
2:1
140
2.0
141
1.0
290
     0
  0
SCALE
  5
55
102
{ACAD_REACTORS
330
47
102
}
330
47
100
AcDbScale
 70
     0
300
4:1
140
4.0
141
1.0
290
     0
  0
SCALE
  5
56
102
{ACAD_REACTORS
330
47
102
}
330
47
100
AcDbScale
 70
     0
300
8:1
140
8.0
141
1.0
290
     0
  0
SCALE
  5
57
102
{ACAD_REACTORS
330
47
102
}
330
47
100
AcDbScale
 70
     0
300
10:1
140
10.0
141
1.0
290
     0
  0
SCALE
  5
58
102
{ACAD_REACTORS
330
47
102
}
330
47
100
AcDbScale
 70
     0
300
100:1
140
100.0
141
1.0
290
     0
  0
SCALE
  5
59
102
{ACAD_REACTORS
330
47
102
}
330
47
100
AcDbScale
 70
     0
300
1/128" = 1'-0"
140
0.0078125
141
12.0
290
     0
  0
SCALE
  5
5A
102
{ACAD_REACTORS
330
47
102
}
330
47
100
AcDbScale
 70
     0
300
1/64" = 1'-0"
140
0.015625
141
12.0
290
     0
  0
SCALE
  5
5B
102
{ACAD_REACTORS
330
47
102
}
330
47
100
AcDbScale
 70
     0
300
1/32" = 1'-0"
140
0.03125
141
12.0
290
     0
  0
SCALE
  5
5C
102
{ACAD_REACTORS
330
47
102
}
330
47
100
AcDbScale
 70
     0
300
1/16" = 1'-0"
140
0.0625
141
12.0
290
     0
  0
SCALE
  5
5D
102
{ACAD_REACTORS
330
47
102
}
330
47
100
AcDbScale
 70
     0
300
3/32" = 1'-0"
140
0.09375
141
12.0
290
     0
  0
SCALE
  5
5E
102
{ACAD_REACTORS
330
47
102
}
330
47
100
AcDbScale
 70
     0
300
1/8" = 1'-0"
140
0.125
141
12.0
290
     0
  0
SCALE
  5
5F
102
{ACAD_REACTORS
330
47
102
}
330
47
100
AcDbScale
 70
     0
300
3/16" = 1'-0"
140
0.1875
141
12.0
290
     0
  0
SCALE
  5
60
102
{ACAD_REACTORS
330
47
102
}
330
47
100
AcDbScale
 70
     0
300
1/4" = 1'-0"
140
0.25
141
12.0
290
     0
  0
SCALE
  5
61
102
{ACAD_REACTORS
330
47
102
}
330
47
100
AcDbScale
 70
     0
300
3/8" = 1'-0"
140
0.375
141
12.0
290
     0
  0
SCALE
  5
62
102
{ACAD_REACTORS
330
47
102
}
330
47
100
AcDbScale
 70
     0
300
1/2" = 1'-0"
140
0.5
141
12.0
290
     0
  0
SCALE
  5
63
102
{ACAD_REACTORS
330
47
102
}
330
47
100
AcDbScale
 70
     0
300
3/4" = 1'-0"
140
0.75
141
12.0
290
     0
  0
SCALE
  5
64
102
{ACAD_REACTORS
330
47
102
}
330
47
100
AcDbScale
 70
     0
300
1" = 1'-0"
140
1.0
141
12.0
290
     0
  0
SCALE
  5
65
102
{ACAD_REACTORS
330
47
102
}
330
47
100
AcDbScale
 70
     0
300
1-1/2" = 1'-0"
140
1.5
141
12.0
290
     0
  0
SCALE
  5
66
102
{ACAD_REACTORS
330
47
102
}
330
47
100
AcDbScale
 70
     0
300
3" = 1'-0"
140
3.0
141
12.0
290
     0
  0
SCALE
  5
67
102
{ACAD_REACTORS
330
47
102
}
330
47
100
AcDbScale
 70
     0
300
6" = 1'-0"
140
6.0
141
12.0
290
     0
  0
SCALE
  5
68
102
{ACAD_REACTORS
330
47
102
}
330
47
100
AcDbScale
 70
     0
300
1'-0" = 1'-0"
140
12.0
141
12.0
290
     0
  0
ENDSEC
  0
EOF
