  0
SECTION
  2
HEADER
  9
$ACADVER
  1
AC1015
  9
$ACADMAINTVER
 70
     6
  9
$DWGCODEPAGE
  3
ANSI_1251
  9
$INSBASE
 10
0.0
 20
0.0
 30
0.0
  9
$EXTMIN
 10
-60.289994754
 20
-485.7446590924
 30
0.0
  9
$EXTMAX
 10
60.3262386843
 20
485.7446590924
 30
0.0
  9
$LIMMIN
 10
0.0
 20
0.0
  9
$LIMMAX
 10
420.0
 20
297.0
  9
$ORTHOMODE
 70
     0
  9
$REGENMODE
 70
     1
  9
$FILLMODE
 70
     1
  9
$QTEXTMODE
 70
     0
  9
$MIRRTEXT
 70
     1
  9
$LTSCALE
 40
1.0
  9
$ATTMODE
 70
     1
  9
$TEXTSIZE
 40
4.0
  9
$TRACEWID
 40
1.0
  9
$TEXTSTYLE
  7
Standard
  9
$CLAYER
  8
0
  9
$CELTYPE
  6
ByLayer
  9
$CECOLOR
 62
   256
  9
$CELTSCALE
 40
1.0
  9
$DISPSILH
 70
     0
  9
$DIMSCALE
 40
1.0
  9
$DIMASZ
 40
6.0
  9
$DIMEXO
 40
1.0
  9
$DIMDLI
 40
3.75
  9
$DIMRND
 40
0.0
  9
$DIMDLE
 40
0.0
  9
$DIMEXE
 40
1.0
  9
$DIMTP
 40
0.0
  9
$DIMTM
 40
0.0
  9
$DIMTXT
 40
4.0
  9
$DIMCEN
 40
2.5
  9
$DIMTSZ
 40
0.0
  9
$DIMTOL
 70
     0
  9
$DIMLIM
 70
     0
  9
$DIMTIH
 70
     1
  9
$DIMTOH
 70
     1
  9
$DIMSE1
 70
     0
  9
$DIMSE2
 70
     0
  9
$DIMTAD
 70
     1
  9
$DIMZIN
 70
     0
  9
$DIMBLK
  1

  9
$DIMASO
 70
     1
  9
$DIMSHO
 70
     1
  9
$DIMPOST
  1

  9
$DIMAPOST
  1

  9
$DIMALT
 70
     0
  9
$DIMALTD
 70
     3
  9
$DIMALTF
 40
0.0393700787
  9
$DIMLFAC
 40
1.0
  9
$DIMTOFL
 70
     1
  9
$DIMTVP
 40
0.0
  9
$DIMTIX
 70
     0
  9
$DIMSOXD
 70
     0
  9
$DIMSAH
 70
     0
  9
$DIMBLK1
  1

  9
$DIMBLK2
  1

  9
$DIMSTYLE
  2
ISO-25
  9
$DIMCLRD
 70
     0
  9
$DIMCLRE
 70
     0
  9
$DIMCLRT
 70
     0
  9
$DIMTFAC
 40
1.0
  9
$DIMGAP
 40
3.0
  9
$DIMJUST
 70
     0
  9
$DIMSD1
 70
     0
  9
$DIMSD2
 70
     0
  9
$DIMTOLJ
 70
     0
  9
$DIMTZIN
 70
     0
  9
$DIMALTZ
 70
     0
  9
$DIMALTTZ
 70
     0
  9
$DIMUPT
 70
     0
  9
$DIMDEC
 70
     2
  9
$DIMTDEC
 70
     4
  9
$DIMALTU
 70
     2
  9
$DIMALTTD
 70
     3
  9
$DIMTXSTY
  7
Standard
  9
$DIMAUNIT
 70
     0
  9
$DIMADEC
 70
     2
  9
$DIMALTRND
 40
0.0
  9
$DIMAZIN
 70
     0
  9
$DIMDSEP
 70
    44
  9
$DIMATFIT
 70
     3
  9
$DIMFRAC
 70
     0
  9
$DIMLDRBLK
  1

  9
$DIMLUNIT
 70
     2
  9
$DIMLWD
 70
    -2
  9
$DIMLWE
 70
    -2
  9
$DIMTMOVE
 70
     0
  9
$LUNITS
 70
     2
  9
$LUPREC
 70
     2
  9
$SKETCHINC
 40
1.0
  9
$FILLETRAD
 40
10.0
  9
$AUNITS
 70
     0
  9
$AUPREC
 70
     2
  9
$MENU
  1
.
  9
$ELEVATION
 40
0.0
  9
$PELEVATION
 40
0.0
  9
$THICKNESS
 40
0.0
  9
$LIMCHECK
 70
     0
  9
$CHAMFERA
 40
0.0
  9
$CHAMFERB
 40
0.0
  9
$CHAMFERC
 40
0.0
  9
$CHAMFERD
 40
0.0
  9
$SKPOLY
 70
     0
  9
$TDCREATE
 40
2457749.649629201
  9
$TDUCREATE
 40
2457749.441295868
  9
$TDUPDATE
 40
2457749.649657974
  9
$TDUUPDATE
 40
2457749.441324641
  9
$TDINDWG
 40
0.0000000116
  9
$TDUSRTIMER
 40
0.0000000116
  9
$USRTIMER
 70
     1
  9
$ANGBASE
 50
0.0
  9
$ANGDIR
 70
     0
  9
$PDMODE
 70
     0
  9
$PDSIZE
 40
-1.0
  9
$PLINEWID
 40
0.0
  9
$SPLFRAME
 70
     0
  9
$SPLINETYPE
 70
     6
  9
$SPLINESEGS
 70
     8
  9
$HANDSEED
  5
495
  9
$SURFTAB1
 70
     6
  9
$SURFTAB2
 70
     6
  9
$SURFTYPE
 70
     6
  9
$SURFU
 70
     6
  9
$SURFV
 70
     6
  9
$UCSBASE
  2

  9
$UCSNAME
  2

  9
$UCSORG
 10
0.0
 20
0.0
 30
0.0
  9
$UCSXDIR
 10
1.0
 20
0.0
 30
0.0
  9
$UCSYDIR
 10
0.0
 20
1.0
 30
0.0
  9
$UCSORTHOREF
  2

  9
$UCSORTHOVIEW
 70
     0
  9
$UCSORGTOP
 10
0.0
 20
0.0
 30
0.0
  9
$UCSORGBOTTOM
 10
0.0
 20
0.0
 30
0.0
  9
$UCSORGLEFT
 10
0.0
 20
0.0
 30
0.0
  9
$UCSORGRIGHT
 10
0.0
 20
0.0
 30
0.0
  9
$UCSORGFRONT
 10
0.0
 20
0.0
 30
0.0
  9
$UCSORGBACK
 10
0.0
 20
0.0
 30
0.0
  9
$PUCSBASE
  2

  9
$PUCSNAME
  2

  9
$PUCSORG
 10
0.0
 20
0.0
 30
0.0
  9
$PUCSXDIR
 10
1.0
 20
0.0
 30
0.0
  9
$PUCSYDIR
 10
0.0
 20
1.0
 30
0.0
  9
$PUCSORTHOREF
  2

  9
$PUCSORTHOVIEW
 70
     0
  9
$PUCSORGTOP
 10
0.0
 20
0.0
 30
0.0
  9
$PUCSORGBOTTOM
 10
0.0
 20
0.0
 30
0.0
  9
$PUCSORGLEFT
 10
0.0
 20
0.0
 30
0.0
  9
$PUCSORGRIGHT
 10
0.0
 20
0.0
 30
0.0
  9
$PUCSORGFRONT
 10
0.0
 20
0.0
 30
0.0
  9
$PUCSORGBACK
 10
0.0
 20
0.0
 30
0.0
  9
$USERI1
 70
     0
  9
$USERI2
 70
     0
  9
$USERI3
 70
     0
  9
$USERI4
 70
     0
  9
$USERI5
 70
     0
  9
$USERR1
 40
0.0
  9
$USERR2
 40
0.0
  9
$USERR3
 40
0.0
  9
$USERR4
 40
0.0
  9
$USERR5
 40
0.0
  9
$WORLDVIEW
 70
     1
  9
$SHADEDGE
 70
     3
  9
$SHADEDIF
 70
    70
  9
$TILEMODE
 70
     1
  9
$MAXACTVP
 70
    64
  9
$PINSBASE
 10
0.0
 20
0.0
 30
0.0
  9
$PLIMCHECK
 70
     0
  9
$PEXTMIN
 10
1.0000000000E+20
 20
1.0000000000E+20
 30
1.0000000000E+20
  9
$PEXTMAX
 10
-1.0000000000E+20
 20
-1.0000000000E+20
 30
-1.0000000000E+20
  9
$PLIMMIN
 10
0.0
 20
0.0
  9
$PLIMMAX
 10
420.0
 20
297.0
  9
$UNITMODE
 70
     0
  9
$VISRETAIN
 70
     1
  9
$PLINEGEN
 70
     0
  9
$PSLTSCALE
 70
     1
  9
$TREEDEPTH
 70
  3020
  9
$CMLSTYLE
  2
Standard
  9
$CMLJUST
 70
     0
  9
$CMLSCALE
 40
20.0
  9
$PROXYGRAPHICS
 70
     1
  9
$MEASUREMENT
 70
     1
  9
$CELWEIGHT
370
    -1
  9
$ENDCAPS
280
     0
  9
$JOINSTYLE
280
     0
  9
$LWDISPLAY
290
     1
  9
$INSUNITS
 70
     4
  9
$HYPERLINKBASE
  1

  9
$STYLESHEET
  1

  9
$XEDIT
290
     1
  9
$CEPSNTYPE
380
     0
  9
$PSTYLEMODE
290
     1
  9
$FINGERPRINTGUID
  2
{11599E0E-C56C-4712-8A15-33A8BC9A33DE}
  9
$VERSIONGUID
  2
{FAEB1C32-E019-11D5-929B-00C0DF256EC4}
  9
$EXTNAMES
290
     1
  9
$PSVPSCALE
 40
0.0
  9
$OLESTARTUP
290
     0
  0
ENDSEC
  0
SECTION
  2
CLASSES
  0
CLASS
  1
ACDBDICTIONARYWDFLT
  2
AcDbDictionaryWithDefault
  3
ObjectDBX Classes
 90
        0
280
     0
281
     0
  0
CLASS
  1
VISUALSTYLE
  2
AcDbVisualStyle
  3
ObjectDBX Classes
 90
     4095
280
     0
281
     0
  0
CLASS
  1
MATERIAL
  2
AcDbMaterial
  3
ObjectDBX Classes
 90
     1153
280
     0
281
     0
  0
CLASS
  1
SCALE
  2
AcDbScale
  3
ObjectDBX Classes
 90
     1153
280
     0
281
     0
  0
CLASS
  1
TABLESTYLE
  2
AcDbTableStyle
  3
ObjectDBX Classes
 90
     4095
280
     0
281
     0
  0
CLASS
  1
MLEADERSTYLE
  2
AcDbMLeaderStyle
  3
ACDB_MLEADERSTYLE_CLASS
 90
     4095
280
     0
281
     0
  0
CLASS
  1
SUN
  2
AcDbSun
  3
SCENEOE
 90
     1153
280
     0
281
     0
  0
CLASS
  1
ACDBPLACEHOLDER
  2
AcDbPlaceHolder
  3
ObjectDBX Classes
 90
        0
280
     0
281
     0
  0
CLASS
  1
LAYOUT
  2
AcDbLayout
  3
ObjectDBX Classes
 90
        0
280
     0
281
     0
  0
ENDSEC
  0
SECTION
  2
TABLES
  0
TABLE
  2
VPORT
  5
8
330
0
100
AcDbSymbolTable
 70
     1
  0
VPORT
  5
29
330
8
100
AcDbSymbolTableRecord
100
AcDbViewportTableRecord
  2
*Active
 70
     0
 10
0.0
 20
0.0
 11
1.0
 21
1.0
 12
0.0181219652
 22
0.0
 13
0.0
 23
0.0
 14
10.0
 24
10.0
 15
10.0
 25
10.0
 16
0.0
 26
0.0
 36
1.0
 17
0.0
 27
0.0
 37
0.0
 40
990.9191045485
 41
0.1241560058
 42
50.0
 43
0.0
 44
0.0
 50
0.0
 51
0.0
 71
     0
 72
   100
 73
     1
 74
     3
 75
     0
 76
     0
 77
     0
 78
     0
281
     0
 65
     1
110
0.0
120
0.0
130
0.0
111
1.0
121
0.0
131
0.0
112
0.0
122
1.0
132
0.0
 79
     0
146
0.0
  0
ENDTAB
  0
TABLE
  2
LTYPE
  5
5
330
0
100
AcDbSymbolTable
 70
     6
  0
LTYPE
  5
14
330
5
100
AcDbSymbolTableRecord
100
AcDbLinetypeTableRecord
  2
ByBlock
 70
     0
  3

 72
    65
 73
     0
 40
0.0
  0
LTYPE
  5
15
330
5
100
AcDbSymbolTableRecord
100
AcDbLinetypeTableRecord
  2
ByLayer
 70
     0
  3

 72
    65
 73
     0
 40
0.0
  0
LTYPE
  5
16
330
5
100
AcDbSymbolTableRecord
100
AcDbLinetypeTableRecord
  2
Continuous
 70
     0
  3
Solid line
 72
    65
 73
     0
 40
0.0
  0
LTYPE
  5
6E
330
5
100
AcDbSymbolTableRecord
100
AcDbLinetypeTableRecord
  2
HIDDEN
 70
     0
  3
Hidden __ __ __ __ __ __ __ __ __ __ __ __ __ __
 72
    65
 73
     2
 40
1.905
 49
1.27
 74
     0
 49
-0.635
 74
     0
  0
LTYPE
  5
6F
330
5
100
AcDbSymbolTableRecord
100
AcDbLinetypeTableRecord
  2
PHANTOM
 70
     0
  3
Phantom ______  __  __  ______  __  __  ______
 72
    65
 73
     6
 40
12.7
 49
6.35
 74
     0
 49
-1.27
 74
     0
 49
1.27
 74
     0
 49
-1.27
 74
     0
 49
1.27
 74
     0
 49
-1.27
 74
     0
  0
LTYPE
  5
70
330
5
100
AcDbSymbolTableRecord
100
AcDbLinetypeTableRecord
  2
CENTER
 70
     0
  3
Center ____ _ ____ _ ____ _ ____ _ ____ _ ____
 72
    65
 73
     4
 40
10.16
 49
6.35
 74
     0
 49
-1.27
 74
     0
 49
1.27
 74
     0
 49
-1.27
 74
     0
  0
LTYPE
  5
71
330
5
100
AcDbSymbolTableRecord
100
AcDbLinetypeTableRecord
  2
CENTERX2
 70
     0
  3
Center (2x) ________  __  ________  __  _____
 72
    65
 73
     4
 40
20.32
 49
12.7
 74
     0
 49
-2.54
 74
     0
 49
2.54
 74
     0
 49
-2.54
 74
     0
  0
LTYPE
  5
72
330
5
100
AcDbSymbolTableRecord
100
AcDbLinetypeTableRecord
  2
DOT2
 70
     0
  3
Dot (.5x) ........................................
 72
    65
 73
     2
 40
0.635
 49
0.0
 74
     0
 49
-0.635
 74
     0
  0
ENDTAB
  0
TABLE
  2
LAYER
  5
2
330
0
100
AcDbSymbolTable
 70
     1
  0
LAYER
  5
10
330
2
100
AcDbSymbolTableRecord
100
AcDbLayerTableRecord
  2
0
 70
     0
 62
     7
  6
Continuous
370
    -3
390
F
  0
ENDTAB
  0
TABLE
  2
STYLE
  5
3
330
0
100
AcDbSymbolTable
 70
     1
  0
STYLE
  5
11
330
3
100
AcDbSymbolTableRecord
100
AcDbTextStyleTableRecord
  2
Standard
 70
     0
 40
0.0
 41
1.0
 50
0.0
 71
     0
 42
4.0
  3
txt
  4

  0
ENDTAB
  0
TABLE
  2
VIEW
  5
6
330
0
100
AcDbSymbolTable
 70
     0
  0
ENDTAB
  0
TABLE
  2
UCS
  5
7
330
0
100
AcDbSymbolTable
 70
     0
  0
ENDTAB
  0
TABLE
  2
APPID
  5
9
330
0
100
AcDbSymbolTable
 70
     1
  0
APPID
  5
12
330
9
100
AcDbSymbolTableRecord
100
AcDbRegAppTableRecord
  2
ACAD
 70
     0
  0
ENDTAB
  0
TABLE
  2
DIMSTYLE
  5
A
330
0
100
AcDbSymbolTable
 70
     1
100
AcDbDimStyleTable
  0
DIMSTYLE
105
27
330
A
100
AcDbSymbolTableRecord
100
AcDbDimStyleTableRecord
  2
ISO-25
 70
     0
 41
2.5
 42
0.625
 43
3.75
 44
1.25
 73
     0
 74
     0
 77
     1
 78
     8
140
2.5
141
2.5
143
0.0393700787
147
0.625
171
     3
172
     1
178
     0
271
     2
272
     2
274
     3
278
    44
283
     0
284
     8
340
11
  0
ENDTAB
  0
TABLE
  2
BLOCK_RECORD
  5
1
330
0
100
AcDbSymbolTable
 70
     1
  0
BLOCK_RECORD
  5
1F
330
1
100
AcDbSymbolTableRecord
100
AcDbBlockTableRecord
  2
*Model_Space
340
22
  0
BLOCK_RECORD
  5
1B
330
1
100
AcDbSymbolTableRecord
100
AcDbBlockTableRecord
  2
*Paper_Space
340
1E
  0
BLOCK_RECORD
  5
23
330
1
100
AcDbSymbolTableRecord
100
AcDbBlockTableRecord
  2
*Paper_Space0
340
26
  0
ENDTAB
  0
ENDSEC
  0
SECTION
  2
BLOCKS
  0
BLOCK
  5
20
330
1F
100
AcDbEntity
  8
0
100
AcDbBlockBegin
  2
*Model_Space
 70
     0
 10
0.0
 20
0.0
 30
0.0
  3
*Model_Space
  1

  0
ENDBLK
  5
21
330
1F
100
AcDbEntity
  8
0
100
AcDbBlockEnd
  0
BLOCK
  5
1C
330
1B
100
AcDbEntity
 67
     1
  8
0
100
AcDbBlockBegin
  2
*Paper_Space
 70
     0
 10
0.0
 20
0.0
 30
0.0
  3
*Paper_Space
  1

  0
ENDBLK
  5
1D
330
1B
100
AcDbEntity
 67
     1
  8
0
100
AcDbBlockEnd
  0
BLOCK
  5
24
330
23
100
AcDbEntity
  8
0
100
AcDbBlockBegin
  2
*Paper_Space0
 70
     0
 10
0.0
 20
0.0
 30
0.0
  3
*Paper_Space0
  1

  0
ENDBLK
  5
25
330
23
100
AcDbEntity
  8
0
100
AcDbBlockEnd
  0
ENDSEC
  0
SECTION
  2
ENTITIES
  0
SPLINE
  5
7B
330
1F
100
AcDbEntity
  8
0
  6
Continuous
 62
     7
370
    15
100
AcDbSpline
210
0.0
220
0.0
230
1.0
 70
     8
 71
     3
 72
    20
 73
    16
 74
     0
 42
0.000000001
 43
0.00000001
 40
0.0
 40
0.0
 40
0.0
 40
0.0
 40
0.0474195110080732
 40
0.1324755329192466
 40
0.2099311782448416
 40
0.2818116829876652
 40
0.3493510087237176
 40
0.4139994617789058
 40
0.4792744760359128
 40
0.5520698235213692
 40
0.65027208950518
 40
0.7592736791132166
 40
0.859952823049098
 40
0.9650411800685681
 40
1.0
 40
1.0
 40
1.0
 40
1.0
 10
-34.51216431916288
 20
-466.5207281409297
 30
0.0
 10
-34.51064728427211
 20
-466.7120423167214
 30
0.0
 10
-34.50640891967592
 20
-467.2465450063872
 30
0.0
 10
-34.2452942675647
 20
-468.0631470875888
 30
0.0
 10
-33.80507773777706
 20
-468.8927140088416
 30
0.0
 10
-33.25099114918427
 20
-469.5554984937176
 30
0.0
 10
-32.64066426289782
 20
-470.0649925146913
 30
0.0
 10
-32.00463272409808
 20
-470.4402871672146
 30
0.0
 10
-31.35768974895558
 20
-470.7093883081107
 30
0.0
 10
-30.64445036196005
 20
-470.9156706294149
 30
0.0
 10
-29.80338070401221
 20
-471.076394343597
 30
0.0
 10
-28.77812474714542
 20
-471.1991101021159
 30
0.0
 10
-27.60950851246642
 20
-471.2797011779596
 30
0.0
 10
-26.65028772814149
 20
-471.3095009233332
 30
0.0
 10
-26.08669305637889
 20
-471.3115628766725
 30
0.0
 10
-25.94600692256874
 20
-471.3120775874353
 30
0.0
  0
SPLINE
  5
7D
330
1F
100
AcDbEntity
  8
0
  6
Continuous
 62
     7
370
    15
100
AcDbSpline
210
0.0
220
0.0
230
1.0
 70
     8
 71
     3
 72
    19
 73
    15
 74
     0
 42
0.000000001
 43
0.00000001
 40
0.0
 40
0.0
 40
0.0
 40
0.0
 40
0.0524263647017676
 40
0.1532085363114052
 40
0.2562773759408298
 40
0.366263051374247
 40
0.5019992863650021
 40
0.5916844573269636
 40
0.6607225898825262
 40
0.7363357105251984
 40
0.8164694122980424
 40
0.8998158237451723
 40
0.9846967406730898
 40
1.0
 40
1.0
 40
1.0
 40
1.0
 10
-25.94600692257532
 20
471.3120775874349
 30
0.0
 10
-26.16078314187775
 20
471.3109095330058
 30
0.0
 10
-26.78843060401407
 20
471.3074960899326
 30
0.0
 10
-27.8184404274908
 20
471.2687640793266
 30
0.0
 10
-28.9857186020952
 20
471.1798442692268
 30
0.0
 10
-30.13805987003207
 20
471.0259321678024
 30
0.0
 10
-31.13443317561001
 20
470.8045941581315
 30
0.0
 10
-32.09878678609245
 20
470.4044084991635
 30
0.0
 10
-32.85911838959979
 20
469.9084248238856
 30
0.0
 10
-33.51032002438988
 20
469.2850860346602
 30
0.0
 10
-34.06143511832295
 20
468.4790584950051
 30
0.0
 10
-34.42982249612928
 20
467.5289177625662
 30
0.0
 10
-34.55535283409623
 20
466.7777562274969
 30
0.0
 10
-34.5415945371622
 20
466.3677820667097
 30
0.0
 10
-34.53949301624009
 20
466.3051602698006
 30
0.0
  0
SPLINE
  5
80
330
1F
100
AcDbEntity
  8
0
  6
Continuous
 62
     7
370
    15
100
AcDbSpline
210
0.0
220
0.0
230
1.0
 70
     8
 71
     3
 72
    20
 73
    16
 74
     0
 42
0.000000001
 43
0.00000001
 40
0.0
 40
0.0
 40
0.0
 40
0.0
 40
0.0474195110080726
 40
0.1324755329192457
 40
0.2099311782448403
 40
0.2818116829876637
 40
0.349351008723711
 40
0.4139994617789404
 40
0.479274476035896
 40
0.5520698235213608
 40
0.650272089505107
 40
0.7592736791131526
 40
0.8599528230490404
 40
0.9650411800685135
 40
1.0
 40
1.0
 40
1.0
 40
1.0
 10
34.51216431916293
 20
466.5207281409297
 30
0.0
 10
34.51064728427218
 20
466.7120423167214
 30
0.0
 10
34.50640891967598
 20
467.2465450063874
 30
0.0
 10
34.24529426756477
 20
468.0631470875888
 30
0.0
 10
33.80507773777715
 20
468.8927140088417
 30
0.0
 10
33.25099114918437
 20
469.5554984937174
 30
0.0
 10
32.64066426289774
 20
470.0649925146913
 30
0.0
 10
32.00463272409813
 20
470.4402871672149
 30
0.0
 10
31.35768974895559
 20
470.7093883081106
 30
0.0
 10
30.6444503619604
 20
470.9156706294151
 30
0.0
 10
29.8033807040127
 20
471.0763943435969
 30
0.0
 10
28.77812474714618
 20
471.1991101021159
 30
0.0
 10
27.60950851246716
 20
471.2797011779597
 30
0.0
 10
26.65028772814199
 20
471.3095009233331
 30
0.0
 10
26.08669305637917
 20
471.3115628766725
 30
0.0
 10
25.94600692256879
 20
471.3120775874353
 30
0.0
  0
SPLINE
  5
82
330
1F
100
AcDbEntity
  8
0
  6
Continuous
 62
     7
370
    15
100
AcDbSpline
210
0.0
220
0.0
230
1.0
 70
     8
 71
     3
 72
    19
 73
    15
 74
     0
 42
0.000000001
 43
0.00000001
 40
0.0
 40
0.0
 40
0.0
 40
0.0
 40
0.0524263647017676
 40
0.1532085363113961
 40
0.2562773759408217
 40
0.3662630513742418
 40
0.5019992863649817
 40
0.5916844573269674
 40
0.6607225898825327
 40
0.7363357105252114
 40
0.8164694122980526
 40
0.8998158237451811
 40
0.9846967406730974
 40
0.9999999999999999
 40
0.9999999999999999
 40
0.9999999999999999
 40
0.9999999999999999
 10
25.94600692257538
 20
-471.3120775874349
 30
0.0
 10
26.1607831418778
 20
-471.3109095330058
 30
0.0
 10
26.7884306040141
 20
-471.3074960899326
 30
0.0
 10
27.81844042749081
 20
-471.2687640793268
 30
0.0
 10
28.98571860209519
 20
-471.1798442692268
 30
0.0
 10
30.13805987003204
 20
-471.0259321678022
 30
0.0
 10
31.13443317561002
 20
-470.8045941581315
 30
0.0
 10
32.09878678609249
 20
-470.4044084991635
 30
0.0
 10
32.85911838959998
 20
-469.9084248238856
 30
0.0
 10
33.51032002439003
 20
-469.2850860346599
 30
0.0
 10
34.06143511832308
 20
-468.4790584950048
 30
0.0
 10
34.42982249612938
 20
-467.528917762566
 30
0.0
 10
34.5553528340963
 20
-466.7777562274966
 30
0.0
 10
34.54159453716226
 20
-466.3677820667096
 30
0.0
 10
34.53949301624015
 20
-466.3051602698006
 30
0.0
  0
SPLINE
  5
83
330
1F
100
AcDbEntity
  8
0
  6
Continuous
 62
     7
370
    15
100
AcDbSpline
210
0.0
220
0.0
230
1.0
 70
     8
 71
     3
 72
    13
 73
     9
 74
     0
 42
0.000000001
 43
0.00000001
 40
0.0
 40
0.0
 40
0.0
 40
0.0
 40
0.1409597235762554
 40
0.364727212472815
 40
0.560035475965644
 40
0.733596063276729
 40
0.8873456025454906
 40
1.0
 40
1.0
 40
1.0
 40
1.0
 10
37.69817948113793
 20
-379.72530100378
 30
0.0
 10
37.50809350074796
 20
-379.7276002429638
 30
0.0
 10
37.01624961855205
 20
-379.7335494809025
 30
0.0
 10
36.28933293120043
 20
-379.4830744766587
 30
0.0
 10
35.6022263691391
 20
-379.0714699154874
 30
0.0
 10
35.09478537867368
 20
-378.5805565300875
 30
0.0
 10
34.74609242620858
 20
-378.0976609851842
 30
0.0
 10
34.6051488084248
 20
-377.7825398006885
 30
0.0
 10
34.54554616498225
 20
-377.649280445664
 30
0.0
  0
SPLINE
  5
84
330
1F
100
AcDbEntity
  8
0
  6
Continuous
 62
     7
370
    15
100
AcDbSpline
210
0.0
220
0.0
230
1.0
 70
     8
 71
     3
 72
    13
 73
     9
 74
     0
 42
0.000000001
 43
0.00000001
 40
0.0
 40
0.0
 40
0.0
 40
0.0
 40
0.1407489971245697
 40
0.3125023630673643
 40
0.5010398070894874
 40
0.7114061444201075
 40
0.9310734534314078
 40
0.9999999999999999
 40
0.9999999999999999
 40
0.9999999999999999
 40
0.9999999999999999
 10
34.54554616498249
 20
-411.0325323682887
 30
0.0
 10
34.61895753446206
 20
-410.8610512198758
 30
0.0
 10
34.78193920203177
 20
-410.4803433850647
 30
0.0
 10
35.2004365468585
 20
-409.9210461437822
 30
0.0
 10
35.79291571376089
 20
-409.3940742913678
 30
0.0
 10
36.55787345282484
 20
-409.0102716475788
 30
0.0
 10
37.23799557802586
 20
-408.8162557202537
 30
0.0
 10
37.63519003787543
 20
-408.8518655379491
 30
0.0
 10
37.73005380184149
 20
-408.8603703930823
 30
0.0
  0
SPLINE
  5
85
330
1F
100
AcDbEntity
  8
0
  6
Continuous
 62
     7
370
    15
100
AcDbSpline
210
0.0
220
0.0
230
1.0
 70
     8
 71
     3
 72
    14
 73
    10
 74
     0
 42
0.000000001
 43
0.00000001
 40
0.0
 40
0.0
 40
0.0
 40
0.0
 40
0.1015096343153344
 40
0.3270760731047309
 40
0.5232762272487166
 40
0.6973865144920552
 40
0.8518884082332524
 40
0.986127639316614
 40
1.0
 40
1.0
 40
1.0
 40
1.0
 10
37.71757702459197
 20
113.052497370331
 30
0.0
 10
37.57887778689432
 20
113.0458421101383
 30
0.0
 10
37.13196895094614
 20
113.0243979073073
 30
0.0
 10
36.4331192067221
 20
113.2409968046855
 30
0.0
 10
35.71899834402258
 20
113.6311074399839
 30
0.0
 10
35.18142595567031
 20
114.1141936130596
 30
0.0
 10
34.81078163537175
 20
114.6141756567217
 30
0.0
 10
34.60954092002159
 20
114.982557146358
 30
0.0
 10
34.55102685386404
 20
115.1529228122056
 30
0.0
 10
34.54554616497881
 20
115.1688800216861
 30
0.0
  0
SPLINE
  5
86
330
1F
100
AcDbEntity
  8
0
  6
Continuous
 62
     7
370
    15
100
AcDbSpline
210
0.0
220
0.0
230
1.0
 70
     8
 71
     3
 72
    13
 73
     9
 74
     0
 42
0.000000001
 43
0.00000001
 40
0.0
 40
0.0
 40
0.0
 40
0.0
 40
0.1063667022255851
 40
0.2740542086334524
 40
0.4599799958212147
 40
0.6700495810643303
 40
0.8913009740374266
 40
1.0
 40
1.0
 40
1.0
 40
1.0
 10
34.54554616497905
 20
81.98125105558019
 30
0.0
 10
34.59725043834437
 20
82.10788639797337
 30
0.0
 10
34.73046022007897
 20
82.43414697997379
 30
0.0
 10
35.09750879394812
 20
82.94913953761551
 30
0.0
 10
35.65380325870277
 20
83.48093207871568
 30
0.0
 10
36.39108831988491
 20
83.89237354129028
 30
0.0
 10
37.10880747426143
 20
84.12168475255261
 30
0.0
 10
37.5590491813825
 20
84.09607320715533
 30
0.0
 10
37.70737577971383
 20
84.08763579821095
 30
0.0
  0
SPLINE
  5
87
330
1F
100
AcDbEntity
  8
0
  6
Continuous
 62
     7
370
    15
100
AcDbSpline
210
0.0
220
0.0
230
1.0
 70
     8
 71
     3
 72
    13
 73
     9
 74
     0
 42
0.000000001
 43
0.00000001
 40
0.0
 40
0.0
 40
0.0
 40
0.0
 40
0.0881372731365787
 40
0.2495739850755055
 40
0.4306411603491941
 40
0.6372680038190811
 40
0.8566521465443656
 40
1.0
 40
1.0
 40
1.0
 40
1.0
 10
-34.54554616497917
 20
-56.26426024375003
 30
0.0
 10
-34.58630636860032
 20
-56.36905174657911
 30
0.0
 10
-34.70171949033615
 20
-56.6657704427198
 30
0.0
 10
-35.03506315178872
 20
-57.15865020882747
 30
0.0
 10
-35.5605107420234
 20
-57.69452669511529
 30
0.0
 10
-36.27263199779818
 20
-58.13075353768696
 30
0.0
 10
-37.02302794534847
 20
-58.38987502031119
 30
0.0
 10
-37.52083723614358
 20
-58.38564198224085
 30
0.0
 10
-37.71756436596327
 20
-58.38396914598528
 30
0.0
  0
SPLINE
  5
88
330
1F
100
AcDbEntity
  8
0
  6
Continuous
 62
     7
370
    15
100
AcDbSpline
210
0.0
220
0.0
230
1.0
 70
     8
 71
     3
 72
    14
 73
    10
 74
     0
 42
0.000000001
 43
0.00000001
 40
0.0
 40
0.0
 40
0.0
 40
0.0
 40
0.1034563567384286
 40
0.3290373717951758
 40
0.525283735265363
 40
0.6994491480581203
 40
0.8539887351994522
 40
0.988225108328468
 40
0.9999999999999999
 40
0.9999999999999999
 40
0.9999999999999999
 40
0.9999999999999999
 10
-37.71654855002376
 20
-87.33512092561057
 30
0.0
 10
-37.5753418576376
 20
-87.32858775088704
 30
0.0
 10
-37.12623804774605
 20
-87.30780917722703
 30
0.0
 10
-36.42596258256265
 20
-87.52585954406146
 30
0.0
 10
-35.7132553543148
 20
-87.91683836701965
 30
0.0
 10
-35.17683969673158
 20
-88.40017568056267
 30
0.0
 10
-34.8074571760986
 20
-88.89990608501476
 30
0.0
 10
-34.60777678933078
 20
-89.26564557097556
 30
0.0
 10
-34.55019029359732
 20
-89.43326130875954
 30
0.0
 10
-34.54554616497894
 20
-89.44677887107727
 30
0.0
  0
SPLINE
  5
89
330
1F
100
AcDbEntity
  8
0
  6
Continuous
 62
     7
370
    15
100
AcDbSpline
210
0.0
220
0.0
230
1.0
 70
     8
 71
     3
 72
    13
 73
     9
 74
     0
 42
0.000000001
 43
0.00000001
 40
0.0
 40
0.0
 40
0.0
 40
0.0
 40
0.1048655739507532
 40
0.333822508685081
 40
0.5329954183211352
 40
0.7097531664459639
 40
0.8665958988931756
 40
1.0
 40
1.0
 40
1.0
 40
1.0
 10
37.69952664627039
 20
-315.4654544356109
 30
0.0
 10
37.55853540615912
 20
-315.4720835334215
 30
0.0
 10
37.10970880206201
 20
-315.4931863725499
 30
0.0
 10
36.4097569475386
 20
-315.2748547221938
 30
0.0
 10
35.69506423495449
 20
-314.8824487535819
 30
0.0
 10
35.16250156711698
 20
-314.3986791869871
 30
0.0
 10
34.78067004736869
 20
-313.8969204267182
 30
0.0
 10
34.61958628404098
 20
-313.5552126823241
 30
0.0
 10
34.5455461649818
 20
-313.3981510297049
 30
0.0
  0
SPLINE
  5
8A
330
1F
100
AcDbEntity
  8
0
  6
Continuous
 62
     7
370
    15
100
AcDbSpline
210
0.0
220
0.0
230
1.0
 70
     8
 71
     3
 72
    13
 73
     9
 74
     0
 42
0.000000001
 43
0.00000001
 40
0.0
 40
0.0
 40
0.0
 40
0.0
 40
0.1196234573079594
 40
0.2858985386669379
 40
0.4697800217289202
 40
0.6773697782780517
 40
0.895839580539654
 40
1.0
 40
1.0
 40
1.0
 40
1.0
 10
34.54554616498203
 20
-346.7167351966542
 30
0.0
 10
34.60430072007306
 20
-346.5714637437808
 30
0.0
 10
34.74471356209127
 20
-346.2242910432051
 30
0.0
 10
35.12353665361623
 20
-345.6890628879692
 30
0.0
 10
35.68339865941314
 20
-345.1550086641443
 30
0.0
 10
36.42279013889215
 20
-344.7438569232064
 30
0.0
 10
37.13775275368559
 20
-344.5166874819975
 30
0.0
 10
37.58394225136934
 20
-344.5434855062243
 30
0.0
 10
37.72799249358792
 20
-344.5521371259977
 30
0.0
  0
SPLINE
  5
8B
330
1F
100
AcDbEntity
  8
0
  6
Continuous
 62
     7
370
    15
100
AcDbSpline
210
0.0
220
0.0
230
1.0
 70
     8
 71
     3
 72
    13
 73
     9
 74
     0
 42
0.000000001
 43
0.00000001
 40
0.0
 40
0.0
 40
0.0
 40
0.0
 40
0.1657057816708167
 40
0.3828409248057388
 40
0.5727934813693054
 40
0.7417047953195407
 40
0.8911187836001241
 40
1.0
 40
1.0
 40
1.0
 40
1.0
 10
37.72466330898228
 20
5.895037364352152
 30
0.0
 10
37.49761748242488
 20
5.897976494059336
 30
0.0
 10
36.97305333736847
 20
5.904767026549786
 30
0.0
 10
36.2254866054346
 20
6.178547302064904
 30
0.0
 10
35.5581668102396
 20
6.599824921874747
 30
0.0
 10
35.06826150265154
 20
7.091581058191141
 30
0.0
 10
34.73440014015508
 20
7.571168446290365
 30
0.0
 10
34.60155008451176
 20
7.879504305384725
 30
0.0
 10
34.54554616497956
 20
8.009485557993116
 30
0.0
  0
SPLINE
  5
8C
330
1F
100
AcDbEntity
  8
0
  6
Continuous
 62
     7
370
    15
100
AcDbSpline
210
0.0
220
0.0
230
1.0
 70
     8
 71
     3
 72
    13
 73
     9
 74
     0
 42
0.000000001
 43
0.00000001
 40
0.0
 40
0.0
 40
0.0
 40
0.0
 40
0.1424619730501269
 40
0.3186626711954525
 40
0.5124195359089193
 40
0.7272156052159994
 40
0.9506893250821095
 40
1.0
 40
1.0
 40
1.0
 40
1.0
 10
34.54554616497981
 20
-25.15307123546857
 30
0.0
 10
34.62162643222591
 20
-24.98369067205383
 30
0.0
 10
34.79179546464814
 20
-24.60483650091673
 30
0.0
 10
35.22285153138207
 20
-24.05293767669768
 30
0.0
 10
35.83078161802236
 20
-23.53545858330456
 30
0.0
 10
36.60827928305854
 20
-23.17015212183795
 30
0.0
 10
37.26638507336254
 20
-22.99277746750356
 30
0.0
 10
37.63508149463372
 20
-23.03040329683728
 30
0.0
 10
37.70172958899654
 20
-23.03720479986045
 30
0.0
  0
SPLINE
  5
8D
330
1F
100
AcDbEntity
  8
0
  6
Continuous
 62
     7
370
    15
100
AcDbSpline
210
0.0
220
0.0
230
1.0
 70
     8
 71
     3
 72
    14
 73
    10
 74
     0
 42
0.000000001
 43
0.00000001
 40
0.0
 40
0.0
 40
0.0
 40
0.0
 40
0.030333391690483
 40
0.2684336143604036
 40
0.4741093832787309
 40
0.6558552694321491
 40
0.8174626609900199
 40
0.9591049750630037
 40
1.0
 40
1.0
 40
1.0
 40
1.0
 10
37.69740942291959
 20
-251.2184502678479
 30
0.0
 10
37.65669147260808
 20
-251.2229494292063
 30
0.0
 10
37.29635793432513
 20
-251.2627647617355
 30
0.0
 10
36.65471353142257
 20
-251.0965403027983
 30
0.0
 10
35.88596474860331
 20
-250.748344540512
 30
0.0
 10
35.29986131856989
 20
-250.28001044597
 30
0.0
 10
34.88474385285411
 20
-249.7790134274405
 30
0.0
 10
34.6429327303923
 20
-249.3761026959697
 30
0.0
 10
34.56337134213545
 20
-249.1631915013552
 30
0.0
 10
34.54554616498136
 20
-249.1154902250798
 30
0.0
  0
SPLINE
  5
8E
330
1F
100
AcDbEntity
  8
0
  6
Continuous
 62
     7
370
    15
100
AcDbSpline
210
0.0
220
0.0
230
1.0
 70
     8
 71
     3
 72
    13
 73
     9
 74
     0
 42
0.000000001
 43
0.00000001
 40
0.0
 40
0.0
 40
0.0
 40
0.0
 40
0.0945385398291443
 40
0.2532981872439682
 40
0.4316124711823632
 40
0.635504538692584
 40
0.8523383895635128
 40
1.0
 40
1.0
 40
1.0
 40
1.0
 10
34.54554616498159
 20
-282.4010692892959
 30
0.0
 10
34.58893410687508
 20
-282.2871032003939
 30
0.0
 10
34.70517660528745
 20
-281.9817717573679
 30
0.0
 10
35.03860594852513
 20
-281.4786806915856
 30
0.0
 10
35.55853643132247
 20
-280.9402056491123
 30
0.0
 10
36.26532138130056
 20
-280.4981999137019
 30
0.0
 10
37.02070516773321
 20
-280.2313461562566
 30
0.0
 10
37.52660535707562
 20
-280.2323091196347
 30
0.0
 10
37.73154982911377
 20
-280.232699224294
 30
0.0
  0
SPLINE
  5
8F
330
1F
100
AcDbEntity
  8
0
  6
Continuous
 62
     7
370
    15
100
AcDbSpline
210
0.0
220
0.0
230
1.0
 70
     8
 71
     3
 72
    13
 73
     9
 74
     0
 42
0.000000001
 43
0.00000001
 40
0.0
 40
0.0
 40
0.0
 40
0.0
 40
0.2122202726799519
 40
0.4202043517295572
 40
0.6029217841294784
 40
0.7654905217841615
 40
0.9087775162798768
 40
0.9999999999999999
 40
0.9999999999999999
 40
0.9999999999999999
 40
0.9999999999999999
 10
37.74506940737838
 20
327.3820426088085
 30
0.0
 10
37.449973862158
 20
327.3960442799535
 30
0.0
 10
36.86566578082715
 20
327.4237684856712
 30
0.0
 10
36.08453467540853
 20
327.7549839980381
 30
0.0
 10
35.45560107321992
 20
328.1984363294236
 30
0.0
 10
35.00003601198045
 20
328.6985320335056
 30
0.0
 10
34.70201167440419
 20
329.1635406168431
 30
0.0
 10
34.58936673542011
 20
329.4477974585063
 30
0.0
 10
34.5455461649773
 20
329.5583776325142
 30
0.0
  0
SPLINE
  5
90
330
1F
100
AcDbEntity
  8
0
  6
Continuous
 62
     7
370
    15
100
AcDbSpline
210
0.0
220
0.0
230
1.0
 70
     8
 71
     3
 72
    13
 73
     9
 74
     0
 42
0.000000001
 43
0.00000001
 40
0.0
 40
0.0
 40
0.0
 40
0.0
 40
0.150184290800392
 40
0.3308722090797886
 40
0.5300667370629382
 40
0.7489863624518075
 40
0.9756596505829076
 40
1.0
 40
1.0
 40
1.0
 40
1.0
 10
34.54554616497754
 20
296.2572354677505
 30
0.0
 10
34.62909907267773
 20
296.4338117262675
 30
0.0
 10
34.81316850603871
 20
296.8228142486795
 30
0.0
 10
35.26627254686178
 20
297.378505792339
 30
0.0
 10
35.89560697929437
 20
297.8886882197262
 30
0.0
 10
36.68949264602348
 20
298.2322792678199
 30
0.0
 10
37.32101692196399
 20
298.3913867594553
 30
0.0
 10
37.65499190568981
 20
298.3511698374966
 30
0.0
 10
37.68737666735199
 20
298.3472700980075
 30
0.0
  0
SPLINE
  5
91
330
1F
100
AcDbEntity
  8
0
  6
Continuous
 62
     7
370
    15
100
AcDbSpline
210
0.0
220
0.0
230
1.0
 70
     8
 71
     3
 72
    13
 73
     9
 74
     0
 42
0.000000001
 43
0.00000001
 40
0.0
 40
0.0
 40
0.0
 40
0.0
 40
0.2147051521901168
 40
0.4258152117220372
 40
0.6112793848365558
 40
0.776292607150708
 40
0.9217334419588635
 40
1.0
 40
1.0
 40
1.0
 40
1.0
 10
37.72135169962225
 20
-122.6742985322913
 30
0.0
 10
37.42736413182013
 20
-122.6603805973405
 30
0.0
 10
36.84430504959337
 20
-122.6327774628283
 30
0.0
 10
36.06413903831221
 20
-122.303303609821
 30
0.0
 10
35.43474734367543
 20
-121.8619019542017
 30
0.0
 10
34.97946381642666
 20
-121.3639873909631
 30
0.0
 10
34.68979352165923
 20
-120.9178456877745
 30
0.0
 10
34.58293371446449
 20
-120.6521432548036
 30
0.0
 10
34.54554616498046
 20
-120.5591806796174
 30
0.0
  0
SPLINE
  5
92
330
1F
100
AcDbEntity
  8
0
  6
Continuous
 62
     7
370
    15
100
AcDbSpline
210
0.0
220
0.0
230
1.0
 70
     8
 71
     3
 72
    14
 73
    10
 74
     0
 42
0.000000001
 43
0.00000001
 40
0.0
 40
0.0
 40
0.0
 40
0.0
 40
0.0299689052250595
 40
0.1824171907811698
 40
0.3604832767830183
 40
0.5585030598357541
 40
0.7745553894588025
 40
0.9974507347474203
 40
1.0
 40
1.0
 40
1.0
 40
1.0
 10
34.5455461649807
 20
-153.7615989810794
 30
0.0
 10
34.55717511597309
 20
-153.7271813933704
 30
0.0
 10
34.62795615290928
 20
-153.5176945231896
 30
0.0
 10
34.87979702487576
 20
-153.0809022280378
 30
0.0
 10
35.33294063023897
 20
-152.5302296409331
 30
0.0
 10
35.98294008707929
 20
-152.0289910497897
 30
0.0
 10
36.78763069924962
 20
-151.7064396094194
 30
0.0
 10
37.39624953461425
 20
-151.5605314255554
 30
0.0
 10
37.70117317911939
 20
-151.6008634647618
 30
0.0
 10
37.70462115789288
 20
-151.6013195265254
 30
0.0
  0
SPLINE
  5
93
330
1F
100
AcDbEntity
  8
0
  6
Continuous
 62
     7
370
    15
100
AcDbSpline
210
0.0
220
0.0
230
1.0
 70
     8
 71
     3
 72
    13
 73
     9
 74
     0
 42
0.000000001
 43
0.00000001
 40
0.0
 40
0.0
 40
0.0
 40
0.0
 40
0.1252602358566125
 40
0.2922999351762089
 40
0.4765203389318584
 40
0.6841003388370152
 40
0.9022430517793579
 40
1.0
 40
1.0
 40
1.0
 40
1.0
 10
-34.5455461649826
 20
436.7746622603043
 30
0.0
 10
-34.60777698110351
 20
436.6215675657414
 30
0.0
 10
-34.7529843161221
 20
436.2643414519173
 30
0.0
 10
-35.14027084843117
 20
435.7203674587281
 30
0.0
 10
-35.70617622370427
 20
435.1858138720033
 30
0.0
 10
-36.45015479519823
 20
434.7782178318049
 30
0.0
 10
-37.15926702635256
 20
434.5566452227529
 30
0.0
 10
-37.59695798006414
 20
434.58538372793
 30
0.0
 10
-37.73240307479499
 20
434.5942769653228
 30
0.0
  0
SPLINE
  5
94
330
1F
100
AcDbEntity
  8
0
  6
Continuous
 62
     7
370
    15
100
AcDbSpline
210
0.0
220
0.0
230
1.0
 70
     8
 71
     3
 72
    13
 73
     9
 74
     0
 42
0.000000001
 43
0.00000001
 40
0.0
 40
0.0
 40
0.0
 40
0.0
 40
0.1497253380808738
 40
0.3723453701983955
 40
0.5668038722499673
 40
0.7396517904764228
 40
0.8926986626666982
 40
1.0
 40
1.0
 40
1.0
 40
1.0
 10
-37.69787421194044
 20
405.4285393697112
 30
0.0
 10
-37.49592795616837
 20
405.429253314581
 30
0.0
 10
-36.99371194320456
 20
405.4310288094749
 30
0.0
 10
-36.26039177090686
 20
405.1722107458282
 30
0.0
 10
-35.57988597038296
 20
404.7561107238909
 30
0.0
 10
-35.07846219825696
 20
404.2634431181236
 30
0.0
 10
-34.7377705635713
 20
403.7855849888288
 30
0.0
 10
-34.60164943946519
 20
403.4773492698054
 30
0.0
 10
-34.54554616498237
 20
403.3503077598022
 30
0.0
  0
SPLINE
  5
95
330
1F
100
AcDbEntity
  8
0
  6
Continuous
 62
     7
370
    15
100
AcDbSpline
210
0.0
220
0.0
230
1.0
 70
     8
 71
     3
 72
    13
 73
     9
 74
     0
 42
0.000000001
 43
0.00000001
 40
0.0
 40
0.0
 40
0.0
 40
0.0
 40
0.2400038093067385
 40
0.4482176429666558
 40
0.6316662013518916
 40
0.7948645930406575
 40
0.9383742937501561
 40
1.0
 40
1.0
 40
1.0
 40
1.0
 10
37.71647524746393
 20
-186.9630807529979
 30
0.0
 10
37.3891021648854
 20
-186.9375545889989
 30
0.0
 10
36.77771162581825
 20
-186.889882816339
 30
0.0
 10
35.98251805341337
 20
-186.532362299416
 30
0.0
 10
35.3728955213237
 20
-186.0809296927418
 30
0.0
 10
34.93559848117414
 20
-185.5806562199011
 30
0.0
 10
34.66799712980472
 20
-185.1535150406119
 30
0.0
 10
34.57383487000828
 20
-184.9112127341256
 30
0.0
 10
34.54554616498091
 20
-184.8384190427841
 30
0.0
  0
SPLINE
  5
96
330
1F
100
AcDbEntity
  8
0
  6
Continuous
 62
     7
370
    15
100
AcDbSpline
210
0.0
220
0.0
230
1.0
 70
     8
 71
     3
 72
    13
 73
     9
 74
     0
 42
0.000000001
 43
0.00000001
 40
0.0
 40
0.0
 40
0.0
 40
0.0
 40
0.0647994027147134
 40
0.2143776214251208
 40
0.3906311780587535
 40
0.5901875458055491
 40
0.8053114651000128
 40
1.0
 40
1.0
 40
1.0
 40
1.0
 10
34.54554616498114
 20
-218.0835404023971
 30
0.0
 10
34.57306235240843
 20
-218.006583885419
 30
0.0
 10
34.66409003557994
 20
-217.7520001621479
 30
0.0
 10
34.95056116943051
 20
-217.2859935595467
 30
0.0
 10
35.42882299179235
 20
-216.743072409347
 30
0.0
 10
36.10279720596834
 20
-216.2712820775048
 30
0.0
 10
36.89700742516469
 20
-215.9515780676901
 30
0.0
 10
37.46548300427332
 20
-215.9253016301478
 30
0.0
 10
37.7355440096439
 20
-215.912818699656
 30
0.0
  0
SPLINE
  5
97
330
1F
100
AcDbEntity
  8
0
  6
Continuous
 62
     7
370
    15
100
AcDbSpline
210
0.0
220
0.0
230
1.0
 70
     8
 71
     3
 72
    14
 73
    10
 74
     0
 42
0.000000001
 43
0.00000001
 40
0.0
 40
0.0
 40
0.0
 40
0.0
 40
0.000948347912669
 40
0.2397523382862644
 40
0.4455072326184334
 40
0.6269507390345973
 40
0.7883496115157655
 40
0.930152993350403
 40
1.0
 40
1.0
 40
1.0
 40
1.0
 10
37.70554466492152
 20
220.1875324933569
 30
0.0
 10
37.7042578360299
 20
220.1873683104487
 30
0.0
 10
37.3789326839401
 20
220.1458609819375
 30
0.0
 10
36.76262840094828
 20
220.2989646881722
 30
0.0
 10
35.97468850918536
 20
220.6289527637446
 30
0.0
 10
35.37190396484843
 20
221.0913417657717
 30
0.0
 10
34.94046814665714
 20
221.591033401822
 30
0.0
 10
34.67240919476413
 20
222.0291954017885
 30
0.0
 10
34.57702542966267
 20
222.2807040115186
 30
0.0
 10
34.54554616497806
 20
222.3637087669687
 30
0.0
  0
SPLINE
  5
98
330
1F
100
AcDbEntity
  8
0
  6
Continuous
 62
     7
370
    15
100
AcDbSpline
210
0.0
220
0.0
230
1.0
 70
     8
 71
     3
 72
    13
 73
     9
 74
     0
 42
0.000000001
 43
0.00000001
 40
0.0
 40
0.0
 40
0.0
 40
0.0
 40
0.058375122799526
 40
0.2124161114744742
 40
0.3916374199597257
 40
0.595101402133931
 40
0.8136539859932982
 40
1.0
 40
1.0
 40
1.0
 40
1.0
 10
34.54554616497829
 20
189.1172708947682
 30
0.0
 10
34.57080896423484
 20
189.1858406605262
 30
0.0
 10
34.6627320024356
 20
189.435343541548
 30
0.0
 10
34.95272327982224
 20
189.8929302260943
 30
0.0
 10
35.44090374816705
 20
190.4345101753986
 30
0.0
 10
36.12387974370529
 20
190.8986572727259
 30
0.0
 10
36.90998528627488
 20
191.2045291463033
 30
0.0
 10
37.46400822441059
 20
191.2232405989062
 30
0.0
 10
37.71898292740988
 20
191.2318520601683
 30
0.0
  0
SPLINE
  5
99
330
1F
100
AcDbEntity
  8
0
  6
Continuous
 62
     7
370
    15
100
AcDbSpline
210
0.0
220
0.0
230
1.0
 70
     8
 71
     3
 72
    13
 73
     9
 74
     0
 42
0.000000001
 43
0.00000001
 40
0.0
 40
0.0
 40
0.0
 40
0.0
 40
0.1562088997800627
 40
0.3718938622754834
 40
0.5604576577189325
 40
0.7281065343459798
 40
0.8764678540835675
 40
1.0
 40
1.0
 40
1.0
 40
1.0
 10
37.74086792762856
 20
434.5843697775296
 30
0.0
 10
37.52439101062033
 20
434.5856691702054
 30
0.0
 10
37.00900917493583
 20
434.5887627258222
 30
0.0
 10
36.26741389281139
 20
434.8576493143194
 30
0.0
 10
35.59495798341132
 20
435.2792962614151
 30
0.0
 10
35.10001747546505
 20
435.7741999194723
 30
0.0
 10
34.75210417376993
 20
436.2760735965707
 30
0.0
 10
34.61007844969077
 20
436.6075160618973
 30
0.0
 10
34.54554616497657
 20
436.7581137066373
 30
0.0
  0
SPLINE
  5
9A
330
1F
100
AcDbEntity
  8
0
  6
Continuous
 62
     7
370
    15
100
AcDbSpline
210
0.0
220
0.0
230
1.0
 70
     8
 71
     3
 72
    13
 73
     9
 74
     0
 42
0.000000001
 43
0.00000001
 40
0.0
 40
0.0
 40
0.0
 40
0.0
 40
0.1303585515005655
 40
0.3085668034630343
 40
0.5040345327496644
 40
0.7209310284327577
 40
0.9466735318095804
 40
1.0
 40
1.0
 40
1.0
 40
1.0
 10
34.54554616497681
 20
403.3456600604624
 30
0.0
 10
34.61462108326802
 20
403.5000375810519
 30
0.0
 10
34.77812045304714
 20
403.8654470226965
 30
0.0
 10
35.19896649761714
 20
404.4064075017878
 30
0.0
 10
35.80547924273269
 20
404.9282270216444
 30
0.0
 10
36.58189441164173
 20
405.2976050790384
 30
0.0
 10
37.24394191323581
 20
405.4776682614456
 30
0.0
 10
37.61711812176752
 20
405.4396249836211
 30
0.0
 10
37.68842671735165
 20
405.4323554614729
 30
0.0
  0
SPLINE
  5
CB
330
1F
100
AcDbEntity
  8
0
  6
Continuous
 62
     7
370
    15
100
AcDbSpline
210
0.0
220
0.0
230
1.0
 70
     8
 71
     3
 72
    13
 73
     9
 74
     0
 42
0.000000001
 43
0.00000001
 40
0.0
 40
0.0
 40
0.0
 40
0.0
 40
0.1438409704674646
 40
0.3341824864969909
 40
0.5337833023512102
 40
0.7540442752610211
 40
0.9819059111490331
 40
1.0
 40
1.0
 40
1.0
 40
1.0
 10
-34.5455461649769
 20
-381.4020484462105
 30
0.0
 10
-34.62697565358105
 20
-381.5726885717244
 30
0.0
 10
-34.81615505468406
 20
-381.9691247682696
 30
0.0
 10
-35.27156231304036
 20
-382.5278781182615
 30
0.0
 10
-35.91377380209256
 20
-383.0433628807347
 30
0.0
 10
-36.7095985582429
 20
-383.3821266002369
 30
0.0
 10
-37.33418495796658
 20
-383.5382443601807
 30
0.0
 10
-37.65966897446774
 20
-383.4980258557214
 30
0.0
 10
-37.68361355645118
 20
-383.4950671381549
 30
0.0
  0
SPLINE
  5
CC
330
1F
100
AcDbEntity
  8
0
  6
Continuous
 62
     7
370
    15
100
AcDbSpline
210
0.0
220
0.0
230
1.0
 70
     8
 71
     3
 72
    14
 73
    10
 74
     0
 42
0.000000001
 43
0.00000001
 40
0.0
 40
0.0
 40
0.0
 40
0.0
 40
0.0707434666927358
 40
0.2991737053431406
 40
0.4972481323523409
 40
0.6726978005782924
 40
0.8285079298075445
 40
0.9645444415829153
 40
1.0
 40
1.0
 40
1.0
 40
1.0
 10
-37.72612859736294
 20
-405.1013701755955
 30
0.0
 10
-37.62908273577413
 20
-405.0939247999482
 30
0.0
 10
-37.21867479162064
 20
-405.0624382299612
 30
0.0
 10
-36.54357313994104
 20
-405.2563741005665
 30
0.0
 10
-35.8057262305453
 20
-405.6319065274741
 30
0.0
 10
-35.24768826019982
 20
-406.1115461525957
 30
0.0
 10
-34.85640632605434
 20
-406.6180155634962
 30
0.0
 10
-34.63258467565219
 20
-407.0161524545996
 30
0.0
 10
-34.56045861915319
 20
-407.2253166585738
 30
0.0
 10
-34.54554616497671
 20
-407.2685624945245
 30
0.0
  0
SPLINE
  5
DC
330
1F
100
AcDbEntity
  8
0
  6
Continuous
 62
     7
370
    15
100
AcDbSpline
210
0.0
220
0.0
230
1.0
 70
     8
 71
     3
 72
     8
 73
     4
 74
     0
 42
0.000000001
 43
0.00000001
 40
0.9024390243902444
 40
0.9024390243902444
 40
0.9024390243902444
 40
0.9024390243902444
 40
0.9268292682926834
 40
0.9268292682926834
 40
0.9268292682926834
 40
0.9268292682926834
 10
18.52108130266257
 20
454.8858185717178
 30
0.0
 10
18.10826212703997
 20
455.0768771798108
 30
0.0
 10
17.75353231674996
 20
455.2098706163928
 30
0.0
 10
17.45691606561399
 20
455.2862988983944
 30
0.0
  0
SPLINE
  5
DD
330
1F
100
AcDbEntity
  8
0
  6
Continuous
 62
     7
370
    15
100
AcDbSpline
210
0.0
220
0.0
230
1.0
 70
     8
 71
     3
 72
     8
 73
     4
 74
     0
 42
0.000000001
 43
0.00000001
 40
0.8780487804878053
 40
0.8780487804878053
 40
0.8780487804878053
 40
0.8780487804878053
 40
0.9024390243902444
 40
0.9024390243902444
 40
0.9024390243902444
 40
0.9024390243902444
 10
17.45691606561399
 20
455.2862988983944
 30
0.0
 10
17.1587514099044
 20
455.3627271803958
 30
0.0
 10
16.83919941602153
 20
455.4009292244859
 30
0.0
 10
16.49518746863961
 20
455.4009292244859
 30
0.0
  0
SPLINE
  5
DE
330
1F
100
AcDbEntity
  8
0
  6
Continuous
 62
     7
370
    15
100
AcDbSpline
210
0.0
220
0.0
230
1.0
 70
     8
 71
     3
 72
     8
 73
     4
 74
     0
 42
0.000000001
 43
0.00000001
 40
0.8536585365853663
 40
0.8536585365853663
 40
0.8536585365853663
 40
0.8536585365853663
 40
0.8780487804878053
 40
0.8780487804878053
 40
0.8780487804878053
 40
0.8780487804878053
 10
16.49518746863961
 20
455.4009292244859
 30
0.0
 10
15.86218032388256
 20
455.4009292244859
 30
0.0
 10
15.33010980226901
 20
455.2694841924775
 30
0.0
 10
14.90045172690819
 20
455.0065699346395
 30
0.0
  0
SPLINE
  5
DF
330
1F
100
AcDbEntity
  8
0
  6
Continuous
 62
     7
370
    15
100
AcDbSpline
210
0.0
220
0.0
230
1.0
 70
     8
 71
     3
 72
     8
 73
     4
 74
     0
 42
0.000000001
 43
0.00000001
 40
0.8292682926829272
 40
0.8292682926829272
 40
0.8292682926829272
 40
0.8292682926829272
 40
0.8536585365853663
 40
0.8536585365853663
 40
0.8536585365853663
 40
0.8536585365853663
 10
14.90045172690819
 20
455.0065699346395
 30
0.0
 10
14.42799478137938
 20
454.7176715125503
 30
0.0
 10
14.19251631708033
 20
454.2973038646311
 30
0.0
 10
14.19251631708033
 20
453.7485638000297
 30
0.0
  0
SPLINE
  5
E0
330
1F
100
AcDbEntity
  8
0
  6
Continuous
 62
     7
370
    15
100
AcDbSpline
210
0.0
220
0.0
230
1.0
 70
     8
 71
     3
 72
     8
 73
     4
 74
     0
 42
0.000000001
 43
0.00000001
 40
0.8048780487804882
 40
0.8048780487804882
 40
0.8048780487804882
 40
0.8048780487804882
 40
0.8292682926829272
 40
0.8292682926829272
 40
0.8292682926829272
 40
0.8292682926829272
 10
14.19251631708033
 20
453.7485638000297
 30
0.0
 10
14.19251631708034
 20
453.5039884588605
 30
0.0
 10
14.24603305015642
 20
453.2777520343603
 30
0.0
 10
14.35306651630858
 20
453.0729271418548
 30
0.0
  0
SPLINE
  5
E1
330
1F
100
AcDbEntity
  8
0
  6
Continuous
 62
     7
370
    15
100
AcDbSpline
210
0.0
220
0.0
230
1.0
 70
     8
 71
     3
 72
     8
 73
     4
 74
     0
 42
0.000000001
 43
0.00000001
 40
0.7804878048780491
 40
0.7804878048780491
 40
0.7804878048780491
 40
0.7804878048780491
 40
0.8048780487804882
 40
0.8048780487804882
 40
0.8048780487804882
 40
0.8048780487804882
 10
14.35306651630858
 20
453.0729271418548
 30
0.0
 10
14.46164838703438
 20
452.8665780385972
 30
0.0
 10
14.6099323187809
 20
452.7030036116861
 30
0.0
 10
14.80106350833834
 20
452.5837764595166
 30
0.0
  0
SPLINE
  5
E2
330
1F
100
AcDbEntity
  8
0
  6
Continuous
 62
     7
370
    15
100
AcDbSpline
210
0.0
220
0.0
230
1.0
 70
     8
 71
     3
 72
     8
 73
     4
 74
     0
 42
0.000000001
 43
0.00000001
 40
0.7560975609756101
 40
0.7560975609756101
 40
0.7560975609756101
 40
0.7560975609756101
 40
0.7804878048780491
 40
0.7804878048780491
 40
0.7804878048780491
 40
0.7804878048780491
 10
14.80106350833834
 20
452.5837764595166
 30
0.0
 10
14.95089584465849
 20
452.4920818761719
 30
0.0
 10
15.12521232829916
 20
452.4217504371791
 30
0.0
 10
15.3254887823696
 20
452.3743789347547
 30
0.0
  0
SPLINE
  5
E3
330
1F
100
AcDbEntity
  8
0
  6
Continuous
 62
     7
370
    15
100
AcDbSpline
210
0.0
220
0.0
230
1.0
 70
     8
 71
     3
 72
     8
 73
     4
 74
     0
 42
0.000000001
 43
0.00000001
 40
0.731707317073171
 40
0.731707317073171
 40
0.731707317073171
 40
0.731707317073171
 40
0.7560975609756101
 40
0.7560975609756101
 40
0.7560975609756101
 40
0.7560975609756101
 10
15.3254887823696
 20
452.3743789347547
 30
0.0
 10
15.52581362408296
 20
452.3254590277564
 30
0.0
 10
15.81478462763663
 20
452.2872569836665
 30
0.0
 10
16.19397439142571
 20
452.2582002040895
 30
0.0
  0
SPLINE
  5
E5
330
1F
100
AcDbEntity
  8
0
  6
Continuous
 62
     7
370
    15
100
AcDbSpline
210
0.0
220
0.0
230
1.0
 70
     8
 71
     3
 72
     8
 73
     4
 74
     0
 42
0.000000001
 43
0.00000001
 40
0.682926829268293
 40
0.682926829268293
 40
0.682926829268293
 40
0.682926829268293
 40
0.707317073170732
 40
0.707317073170732
 40
0.707317073170732
 40
0.707317073170732
 10
16.89728878135414
 20
452.1985866280047
 30
0.0
 10
17.27038170213455
 20
452.1664814269233
 30
0.0
 10
17.52879590918048
 20
452.1267551720811
 30
0.0
 10
17.67250720867051
 20
452.0778352650831
 30
0.0
  0
SPLINE
  5
E6
330
1F
100
AcDbEntity
  8
0
  6
Continuous
 62
     7
370
    15
100
AcDbSpline
210
0.0
220
0.0
230
1.0
 70
     8
 71
     3
 72
     8
 73
     4
 74
     0
 42
0.000000001
 43
0.00000001
 40
0.6585365853658539
 40
0.6585365853658539
 40
0.6585365853658539
 40
0.6585365853658539
 40
0.682926829268293
 40
0.682926829268293
 40
0.682926829268293
 40
0.682926829268293
 10
17.67250720867051
 20
452.0778352650831
 30
0.0
 10
17.888098351727
 20
452.0075280199115
 30
0.0
 10
17.99513181787917
 20
451.8806556201598
 30
0.0
 10
17.99513181787917
 20
451.6987422765799
 30
0.0
  0
SPLINE
  5
E7
330
1F
100
AcDbEntity
  8
0
  6
Continuous
 62
     7
370
    15
100
AcDbSpline
210
0.0
220
0.0
230
1.0
 70
     8
 71
     3
 72
     8
 73
     4
 74
     0
 42
0.000000001
 43
0.00000001
 40
0.6341463414634149
 40
0.6341463414634149
 40
0.6341463414634149
 40
0.6341463414634149
 40
0.6585365853658539
 40
0.6585365853658539
 40
0.6585365853658539
 40
0.6585365853658539
 10
17.99513181787917
 20
451.6987422765799
 30
0.0
 10
17.99513181787918
 20
451.4725300459012
 30
0.0
 10
17.83915425090743
 20
451.3074314082377
 30
0.0
 10
17.52879590918049
 20
451.2065431727372
 30
0.0
  0
SPLINE
  5
E8
330
1F
100
AcDbEntity
  8
0
  6
Continuous
 62
     7
370
    15
100
AcDbSpline
210
0.0
220
0.0
230
1.0
 70
     8
 71
     3
 72
     8
 73
     4
 74
     0
 42
0.000000001
 43
0.00000001
 40
0.6097560975609758
 40
0.6097560975609758
 40
0.6097560975609758
 40
0.6097560975609758
 40
0.6341463414634149
 40
0.6341463414634149
 40
0.6341463414634149
 40
0.6341463414634149
 10
17.52879590918049
 20
451.2065431727372
 30
0.0
 10
17.27802694971685
 20
451.1224696431535
 30
0.0
 10
16.99517698299331
 20
451.0811949837376
 30
0.0
 10
16.67867341061478
 20
451.0811949837376
 30
0.0
  0
SPLINE
  5
E9
330
1F
100
AcDbEntity
  8
0
  6
Continuous
 62
     7
370
    15
100
AcDbSpline
210
0.0
220
0.0
230
1.0
 70
     8
 71
     3
 72
     8
 73
     4
 74
     0
 42
0.000000001
 43
0.00000001
 40
0.5853658536585368
 40
0.5853658536585368
 40
0.5853658536585368
 40
0.5853658536585368
 40
0.6097560975609758
 40
0.6097560975609758
 40
0.6097560975609758
 40
0.6097560975609758
 10
16.67867341061478
 20
451.0811949837376
 30
0.0
 10
16.31934677424681
 20
451.0811949837376
 30
0.0
 10
15.95699591019596
 20
451.1301148907357
 30
0.0
 10
15.58999983242422
 20
451.2264304939798
 30
0.0
  0
SPLINE
  5
EA
330
1F
100
AcDbEntity
  8
0
  6
Continuous
 62
     7
370
    15
100
AcDbSpline
210
0.0
220
0.0
230
1.0
 70
     8
 71
     3
 72
     8
 73
     4
 74
     0
 42
0.000000001
 43
0.00000001
 40
0.5609756097560977
 40
0.5609756097560977
 40
0.5609756097560977
 40
0.5609756097560977
 40
0.5853658536585368
 40
0.5853658536585368
 40
0.5853658536585368
 40
0.5853658536585368
 10
15.58999983242422
 20
451.2264304939798
 30
0.0
 10
15.22152793154324
 20
451.3242461141546
 30
0.0
 10
14.96313791831876
 20
451.4373522294939
 30
0.0
 10
14.81482979275077
 20
451.5688214553238
 30
0.0
  0
SPLINE
  5
EB
330
1F
100
AcDbEntity
  8
0
  6
Continuous
 62
     7
370
    15
100
AcDbSpline
210
0.0
220
0.0
230
1.0
 70
     8
 71
     3
 72
     8
 73
     4
 74
     0
 42
0.000000001
 43
0.00000001
 40
0.5365853658536587
 40
0.5365853658536587
 40
0.5365853658536587
 40
0.5365853658536587
 40
0.5609756097560977
 40
0.5609756097560977
 40
0.5609756097560977
 40
0.5609756097560977
 10
14.81482979275077
 20
451.5688214553238
 30
0.0
 10
14.75519202284456
 20
451.6223139945783
 30
0.0
 10
14.72463522633683
 20
451.6880486074932
 30
0.0
 10
14.72463522633683
 20
451.7660011002469
 30
0.0
  0
SPLINE
  5
F0
330
1F
100
AcDbEntity
  8
0
  6
Continuous
 62
     7
370
    15
100
AcDbSpline
210
0.0
220
0.0
230
1.0
 70
     8
 71
     3
 72
     8
 73
     4
 74
     0
 42
0.000000001
 43
0.00000001
 40
0.4146341463414635
 40
0.4146341463414635
 40
0.4146341463414635
 40
0.4146341463414635
 40
0.4390243902439026
 40
0.4390243902439026
 40
0.4390243902439026
 40
0.4390243902439026
 10
14.20935521681858
 20
450.5752537893041
 30
0.0
 10
14.25979933456887
 20
450.6470852452276
 30
0.0
 10
14.31636448914928
 20
450.6822630616347
 30
0.0
 10
14.37600225905549
 20
450.6822630616347
 30
0.0
  0
SPLINE
  5
F1
330
1F
100
AcDbEntity
  8
0
  6
Continuous
 62
     7
370
    15
100
AcDbSpline
210
0.0
220
0.0
230
1.0
 70
     8
 71
     3
 72
     8
 73
     4
 74
     0
 42
0.000000001
 43
0.00000001
 40
0.3902439024390245
 40
0.3902439024390245
 40
0.3902439024390245
 40
0.3902439024390245
 40
0.4146341463414635
 40
0.4146341463414635
 40
0.4146341463414635
 40
0.4146341463414635
 10
14.37600225905549
 20
450.6822630616347
 30
0.0
 10
14.40810746013685
 20
450.6822630616347
 30
0.0
 10
14.44938211955267
 20
450.6715451987267
 30
0.0
 10
14.49680200962008
 20
450.6516820713055
 30
0.0
  0
SPLINE
  5
F2
330
1F
100
AcDbEntity
  8
0
  6
Continuous
 62
     7
370
    15
100
AcDbSpline
210
0.0
220
0.0
230
1.0
 70
     8
 71
     3
 72
     8
 73
     4
 74
     0
 42
0.000000001
 43
0.00000001
 40
0.3658536585365854
 40
0.3658536585365854
 40
0.3658536585365854
 40
0.3658536585365854
 40
0.3902439024390245
 40
0.3902439024390245
 40
0.3902439024390245
 40
0.3902439024390245
 10
14.49680200962008
 20
450.6516820713055
 30
0.0
 10
15.20166480412215
 20
450.3322026588871
 30
0.0
 10
15.93098755212328
 20
450.1717008473018
 30
0.0
 10
16.68784286894925
 20
450.1717008473018
 30
0.0
  0
SPLINE
  5
F3
330
1F
100
AcDbEntity
  8
0
  6
Continuous
 62
     7
370
    15
100
AcDbSpline
210
0.0
220
0.0
230
1.0
 70
     8
 71
     3
 72
     8
 73
     4
 74
     0
 42
0.000000001
 43
0.00000001
 40
0.3414634146341464
 40
0.3414634146341464
 40
0.3414634146341464
 40
0.3414634146341464
 40
0.3658536585365854
 40
0.3658536585365854
 40
0.3658536585365854
 40
0.3658536585365854
 10
16.68784286894925
 20
450.1717008473018
 30
0.0
 10
17.43705293819293
 20
450.1717008473018
 30
0.0
 10
18.03180965121703
 20
450.3138637422181
 30
0.0
 10
18.47063718491232
 20
450.5966411274773
 30
0.0
  0
SPLINE
  5
F4
330
1F
100
AcDbEntity
  8
0
  6
Continuous
 62
     7
370
    15
100
AcDbSpline
210
0.0
220
0.0
230
1.0
 70
     8
 71
     3
 72
     8
 73
     4
 74
     0
 42
0.000000001
 43
0.00000001
 40
0.3170731707317073
 40
0.3170731707317073
 40
0.3170731707317073
 40
0.3170731707317073
 40
0.3414634146341464
 40
0.3414634146341464
 40
0.3414634146341464
 40
0.3414634146341464
 10
18.47063718491232
 20
450.5966411274773
 30
0.0
 10
18.93087625060233
 20
450.8931847971489
 30
0.0
 10
19.16020948424978
 20
451.295213528399
 30
0.0
 10
19.16020948424978
 20
451.8057515489105
 30
0.0
  0
SPLINE
  5
F5
330
1F
100
AcDbEntity
  8
0
  6
Continuous
 62
     7
370
    15
100
AcDbSpline
210
0.0
220
0.0
230
1.0
 70
     8
 71
     3
 72
     8
 73
     4
 74
     0
 42
0.000000001
 43
0.00000001
 40
0.2926829268292683
 40
0.2926829268292683
 40
0.2926829268292683
 40
0.2926829268292683
 40
0.3170731707317073
 40
0.3170731707317073
 40
0.3170731707317073
 40
0.3170731707317073
 10
19.16020948424978
 20
451.8057515489105
 30
0.0
 10
19.16020948424977
 20
452.0870047234175
 30
0.0
 10
19.0868296237526
 20
452.3376769075953
 30
0.0
 10
18.94004570893678
 20
452.5623891213434
 30
0.0
  0
SPLINE
  5
F6
330
1F
100
AcDbEntity
  8
0
  6
Continuous
 62
     7
370
    15
100
AcDbSpline
210
0.0
220
0.0
230
1.0
 70
     8
 71
     3
 72
     8
 73
     4
 74
     0
 42
0.000000001
 43
0.00000001
 40
0.2682926829268292
 40
0.2682926829268292
 40
0.2682926829268292
 40
0.2682926829268292
 40
0.2926829268292683
 40
0.2926829268292683
 40
0.2926829268292683
 40
0.2926829268292683
 10
18.94004570893678
 20
452.5623891213434
 30
0.0
 10
18.82384278445014
 20
452.7412298495975
 30
0.0
 10
18.67705886963433
 20
452.8849169552661
 30
0.0
 10
18.496645542985
 20
452.9919020337754
 30
0.0
  0
SPLINE
  5
F7
330
1F
100
AcDbEntity
  8
0
  6
Continuous
 62
     7
370
    15
100
AcDbSpline
210
0.0
220
0.0
230
1.0
 70
     8
 71
     3
 72
     8
 73
     4
 74
     0
 42
0.000000001
 43
0.00000001
 40
0.2439024390243902
 40
0.2439024390243902
 40
0.2439024390243902
 40
0.2439024390243902
 40
0.2682926829268292
 40
0.2682926829268292
 40
0.2682926829268292
 40
0.2682926829268292
 10
18.496645542985
 20
452.9919020337754
 30
0.0
 10
18.17402093377634
 20
453.1829848356899
 30
0.0
 10
17.70461240975186
 20
453.3022119878594
 30
0.0
 10
17.08537154940723
 20
453.3496076841053
 30
0.0
  0
SPLINE
  5
F9
330
1F
100
AcDbEntity
  8
0
  6
Continuous
 62
     7
370
    15
100
AcDbSpline
210
0.0
220
0.0
230
1.0
 70
     8
 71
     3
 72
     8
 73
     4
 74
     0
 42
0.000000001
 43
0.00000001
 40
0.1951219512195122
 40
0.1951219512195122
 40
0.1951219512195122
 40
0.1951219512195122
 40
0.2195121951219512
 40
0.2195121951219512
 40
0.2195121951219512
 40
0.2195121951219512
 10
16.37746033340083
 20
453.40310022336
 30
0.0
 10
15.93251176287542
 20
453.4397780566978
 30
0.0
 10
15.63282289641366
 20
453.4886979636959
 30
0.0
 10
15.47686952326337
 20
453.5498357505328
 30
0.0
  0
SPLINE
  5
FA
330
1F
100
AcDbEntity
  8
0
  6
Continuous
 62
     7
370
    15
100
AcDbSpline
210
0.0
220
0.0
230
1.0
 70
     8
 71
     3
 72
     8
 73
     4
 74
     0
 42
0.000000001
 43
0.00000001
 40
0.1707317073170732
 40
0.1707317073170732
 40
0.1707317073170732
 40
0.1707317073170732
 40
0.1951219512195122
 40
0.1951219512195122
 40
0.1951219512195122
 40
0.1951219512195122
 10
15.47686952326337
 20
453.5498357505328
 30
0.0
 10
15.32244036086526
 20
453.6109735373697
 30
0.0
 10
15.24448786811158
 20
453.7133859836225
 30
0.0
 10
15.24448786811158
 20
453.8601457046169
 30
0.0
  0
SPLINE
  5
FB
330
1F
100
AcDbEntity
  8
0
  6
Continuous
 62
     7
370
    15
100
AcDbSpline
210
0.0
220
0.0
230
1.0
 70
     8
 71
     3
 72
     8
 73
     4
 74
     0
 42
0.000000001
 43
0.00000001
 40
0.1463414634146341
 40
0.1463414634146341
 40
0.1463414634146341
 40
0.1463414634146341
 40
0.1707317073170732
 40
0.1707317073170732
 40
0.1707317073170732
 40
0.1707317073170732
 10
15.24448786811158
 20
453.8601457046169
 30
0.0
 10
15.24448786811158
 20
454.0817853030391
 30
0.0
 10
15.40653808427052
 20
454.2499323622067
 30
0.0
 10
15.72916269347918
 20
454.3660868990504
 30
0.0
  0
SPLINE
  5
FC
330
1F
100
AcDbEntity
  8
0
  6
Continuous
 62
     7
370
    15
100
AcDbSpline
210
0.0
220
0.0
230
1.0
 70
     8
 71
     3
 72
     8
 73
     4
 74
     0
 42
0.000000001
 43
0.00000001
 40
0.1219512195121951
 40
0.1219512195121951
 40
0.1219512195121951
 40
0.1219512195121951
 40
0.1463414634146341
 40
0.1463414634146341
 40
0.1463414634146341
 40
0.1463414634146341
 10
15.72916269347918
 20
454.3660868990504
 30
0.0
 10
15.95239908411797
 20
454.4471120071298
 30
0.0
 10
16.20926488659029
 20
454.4868624557936
 30
0.0
 10
16.49978429471759
 20
454.4868624557936
 30
0.0
  0
SPLINE
  5
FD
330
1F
100
AcDbEntity
  8
0
  6
Continuous
 62
     7
370
    15
100
AcDbSpline
210
0.0
220
0.0
230
1.0
 70
     8
 71
     3
 72
     8
 73
     4
 74
     0
 42
0.000000001
 43
0.00000001
 40
0.0975609756097561
 40
0.0975609756097561
 40
0.0975609756097561
 40
0.0975609756097561
 40
0.1219512195121951
 40
0.1219512195121951
 40
0.1219512195121951
 40
0.1219512195121951
 10
16.49978429471759
 20
454.4868624557936
 30
0.0
 10
16.83919941602154
 20
454.4868624557936
 30
0.0
 10
17.17559030964263
 20
454.4379425487954
 30
0.0
 10
17.50736018336428
 20
454.338578524047
 30
0.0
  0
SPLINE
  5
FE
330
1F
100
AcDbEntity
  8
0
  6
Continuous
 62
     7
370
    15
100
AcDbSpline
210
0.0
220
0.0
230
1.0
 70
     8
 71
     3
 72
     8
 73
     4
 74
     0
 42
0.000000001
 43
0.00000001
 40
0.0731707317073171
 40
0.0731707317073171
 40
0.0731707317073171
 40
0.0731707317073171
 40
0.0975609756097561
 40
0.0975609756097561
 40
0.0975609756097561
 40
0.0975609756097561
 10
17.50736018336428
 20
454.338578524047
 30
0.0
 10
17.83915425090741
 20
454.2407629038722
 30
0.0
 10
18.08992321037105
 20
454.1154147148726
 30
0.0
 10
18.25964286793377
 20
453.9625581508696
 30
0.0
  0
SPLINE
  5
FF
330
1F
100
AcDbEntity
  8
0
  6
Continuous
 62
     7
370
    15
100
AcDbSpline
210
0.0
220
0.0
230
1.0
 70
     8
 71
     3
 72
     8
 73
     4
 74
     0
 42
0.000000001
 43
0.00000001
 40
0.0487804878048781
 40
0.0487804878048781
 40
0.0487804878048781
 40
0.0487804878048781
 40
0.0731707317073171
 40
0.0731707317073171
 40
0.0731707317073171
 40
0.0731707317073171
 10
18.25964286793377
 20
453.9625581508696
 30
0.0
 10
18.32232905934431
 20
453.9059929962891
 30
0.0
 10
18.35443426042567
 20
453.8280405035355
 30
0.0
 10
18.35443426042567
 20
453.7302006895393
 30
0.0
  0
SPLINE
  5
103
330
1F
100
AcDbEntity
  8
0
  6
Continuous
 62
     7
370
    15
100
AcDbSpline
210
0.0
220
0.0
230
1.0
 70
     8
 71
     3
 72
     8
 73
     4
 74
     0
 42
0.000000001
 43
0.00000001
 40
0.9512195121951225
 40
0.9512195121951225
 40
0.9512195121951225
 40
0.9512195121951225
 40
0.9756097560975615
 40
0.9756097560975615
 40
0.9756097560975615
 40
0.9756097560975615
 10
18.95990883635785
 20
454.8995606623088
 30
0.0
 10
18.88498057128705
 20
454.8338260493938
 30
0.0
 10
18.82384278445013
 20
454.8001966375605
 30
0.0
 10
18.77644708820419
 20
454.8001966375605
 30
0.0
  0
SPLINE
  5
104
330
1F
100
AcDbEntity
  8
0
  6
Continuous
 62
     7
370
    15
100
AcDbSpline
210
0.0
220
0.0
230
1.0
 70
     8
 71
     3
 72
     8
 73
     4
 74
     0
 42
0.000000001
 43
0.00000001
 40
0.9268292682926834
 40
0.9268292682926834
 40
0.9268292682926834
 40
0.9268292682926834
 40
0.9512195121951225
 40
0.9512195121951225
 40
0.9512195121951225
 40
0.9512195121951225
 10
18.77644708820419
 20
454.8001966375605
 30
0.0
 10
18.7275029873846
 20
454.8001966375605
 30
0.0
 10
18.64340526397933
 20
454.8292534171374
 30
0.0
 10
18.52108130266257
 20
454.8858185717178
 30
0.0
  0
SPLINE
  5
105
330
1F
100
AcDbEntity
  8
0
  6
Continuous
 62
     7
370
    15
100
AcDbSpline
210
0.0
220
0.0
230
1.0
 70
     8
 71
     3
 72
     8
 73
     4
 74
     0
 42
0.000000001
 43
0.00000001
 40
0.8571428571428569
 40
0.8571428571428569
 40
0.8571428571428569
 40
0.8571428571428569
 40
0.8928571428571426
 40
0.8928571428571426
 40
0.8928571428571426
 40
0.8928571428571426
 10
-0.0775318458494142
 20
450.6042863750595
 30
0.0
 10
-0.0775318458494135
 20
450.5125917917148
 30
0.0
 10
-0.1555085324245546
 20
450.4453329680479
 30
0.0
 10
-0.311461905574832
 20
450.404058308632
 30
0.0
  0
SPLINE
  5
109
330
1F
100
AcDbEntity
  8
0
  6
Continuous
 62
     7
370
    15
100
AcDbSpline
210
0.0
220
0.0
230
1.0
 70
     8
 71
     3
 72
     8
 73
     4
 74
     0
 42
0.000000001
 43
0.00000001
 40
0.7142857142857141
 40
0.7142857142857141
 40
0.7142857142857141
 40
0.7142857142857141
 40
0.7499999999999998
 40
0.7499999999999998
 40
0.7499999999999998
 40
0.7499999999999998
 10
1.797005441101226
 20
450.404058308632
 30
0.0
 10
1.665512021450005
 20
450.428518262131
 30
0.0
 10
1.547809080032673
 20
450.4835350121378
 30
0.0
 10
1.445348246137008
 20
450.5722053677997
 30
0.0
  0
SPLINE
  5
10A
330
1F
100
AcDbEntity
  8
0
  6
Continuous
 62
     7
370
    15
100
AcDbSpline
210
0.0
220
0.0
230
1.0
 70
     8
 71
     3
 72
     8
 73
     4
 74
     0
 42
0.000000001
 43
0.00000001
 40
0.6785714285714284
 40
0.6785714285714284
 40
0.6785714285714284
 40
0.6785714285714284
 40
0.7142857142857141
 40
0.7142857142857141
 40
0.7142857142857141
 40
0.7142857142857141
 10
1.445348246137008
 20
450.5722053677997
 30
0.0
 10
1.342887412241345
 20
450.6593273188878
 30
0.0
 10
1.203772938829284
 20
450.8259259734818
 30
0.0
 10
1.03100485976224
 20
451.0689771038986
 30
0.0
  0
SPLINE
  5
10C
330
1F
100
AcDbEntity
  8
0
  6
Continuous
 62
     7
370
    15
100
AcDbSpline
210
0.0
220
0.0
230
1.0
 70
     8
 71
     3
 72
     8
 73
     4
 74
     0
 42
0.000000001
 43
0.00000001
 40
0.607142857142857
 40
0.607142857142857
 40
0.607142857142857
 40
0.607142857142857
 40
0.6428571428571427
 40
0.6428571428571427
 40
0.6428571428571427
 40
0.6428571428571427
 10
0.0814941426266512
 20
452.3911936406712
 30
0.0
 10
0.5768626370808904
 20
452.4920818761718
 30
0.0
 10
0.9362134672703275
 20
452.6571563200137
 30
0.0
 10
1.159425664087653
 20
452.8864411660182
 30
0.0
  0
SPLINE
  5
10D
330
1F
100
AcDbEntity
  8
0
  6
Continuous
 62
     7
370
    15
100
AcDbSpline
210
0.0
220
0.0
230
1.0
 70
     8
 71
     3
 72
     8
 73
     4
 74
     0
 42
0.000000001
 43
0.00000001
 40
0.5714285714285713
 40
0.5714285714285713
 40
0.5714285714285713
 40
0.5714285714285713
 40
0.607142857142857
 40
0.607142857142857
 40
0.607142857142857
 40
0.607142857142857
 10
1.159425664087653
 20
452.8864411660182
 30
0.0
 10
1.381137843974274
 20
453.1142018012707
 30
0.0
 10
1.492743942382941
 20
453.4321328091154
 30
0.0
 10
1.492743942382938
 20
453.8387341726219
 30
0.0
  0
SPLINE
  5
10E
330
1F
100
AcDbEntity
  8
0
  6
Continuous
 62
     7
370
    15
100
AcDbSpline
210
0.0
220
0.0
230
1.0
 70
     8
 71
     3
 72
     8
 73
     4
 74
     0
 42
0.000000001
 43
0.00000001
 40
0.5357142857142856
 40
0.5357142857142856
 40
0.5357142857142856
 40
0.5357142857142856
 40
0.5714285714285713
 40
0.5714285714285713
 40
0.5714285714285713
 40
0.5714285714285713
 10
1.492743942382938
 20
453.8387341726219
 30
0.0
 10
1.492743942382935
 20
454.3722079358805
 30
0.0
 10
1.312330615733587
 20
454.7573977673924
 30
0.0
 10
0.9514797686134443
 20
454.9943278609791
 30
0.0
  0
SPLINE
  5
10F
330
1F
100
AcDbEntity
  8
0
  6
Continuous
 62
     7
370
    15
100
AcDbSpline
210
0.0
220
0.0
230
1.0
 70
     8
 71
     3
 72
     8
 73
     4
 74
     0
 42
0.000000001
 43
0.00000001
 40
0.4999999999999998
 40
0.4999999999999998
 40
0.4999999999999998
 40
0.4999999999999998
 40
0.5357142857142856
 40
0.5357142857142856
 40
0.5357142857142856
 40
0.5357142857142856
 10
0.9514797686134443
 20
454.9943278609791
 30
0.0
 10
0.7741390572898958
 20
455.10745817014
 30
0.0
 10
0.5738142155765376
 20
455.1854106628937
 30
0.0
 10
0.3506020187592098
 20
455.2297337438138
 30
0.0
  0
SPLINE
  5
110
330
1F
100
AcDbEntity
  8
0
  6
Continuous
 62
     7
370
    15
100
AcDbSpline
210
0.0
220
0.0
230
1.0
 70
     8
 71
     3
 72
     8
 73
     4
 74
     0
 42
0.000000001
 43
0.00000001
 40
0.4642857142857141
 40
0.4642857142857141
 40
0.4642857142857141
 40
0.4642857142857141
 40
0.4999999999999998
 40
0.4999999999999998
 40
0.4999999999999998
 40
0.4999999999999998
 10
0.3506020187592098
 20
455.2297337438138
 30
0.0
 10
0.1258172235467843
 20
455.2725326139818
 30
0.0
 10
-0.198307402592576
 20
455.2939441459766
 30
0.0
 10
-0.6264170733797662
 20
455.2939441459766
 30
0.0
  0
SPLINE
  5
113
330
1F
100
AcDbEntity
  8
0
  6
Continuous
 62
     7
370
    15
100
AcDbSpline
210
0.0
220
0.0
230
1.0
 70
     8
 71
     3
 72
     8
 73
     4
 74
     0
 42
0.000000001
 43
0.00000001
 40
0.357142857142857
 40
0.357142857142857
 40
0.357142857142857
 40
0.357142857142857
 40
0.3928571428571427
 40
0.3928571428571427
 40
0.3928571428571427
 40
0.3928571428571427
 10
-3.913752564660325
 20
455.168595956977
 30
0.0
 10
-3.805219081577456
 20
455.1364907558956
 30
0.0
 10
-3.731815027258816
 20
455.0952160964798
 30
0.0
 10
-3.688991963269368
 20
455.0478445940553
 30
0.0
  0
SPLINE
  5
114
330
1F
100
AcDbEntity
  8
0
  6
Continuous
 62
     7
370
    15
100
AcDbSpline
210
0.0
220
0.0
230
1.0
 70
     8
 71
     3
 72
     8
 73
     4
 74
     0
 42
0.000000001
 43
0.00000001
 40
0.3214285714285713
 40
0.3214285714285713
 40
0.3214285714285713
 40
0.3214285714285713
 40
0.357142857142857
 40
0.357142857142857
 40
0.357142857142857
 40
0.357142857142857
 10
-3.688991963269368
 20
455.0478445940553
 30
0.0
 10
-3.647717303853545
 20
455.0004488978093
 30
0.0
 10
-3.626329965680283
 20
454.9301416526379
 30
0.0
 10
-3.626329965680282
 20
454.8368986647196
 30
0.0
  0
SPLINE
  5
116
330
1F
100
AcDbEntity
  8
0
  6
Continuous
 62
     7
370
    15
100
AcDbSpline
210
0.0
220
0.0
230
1.0
 70
     8
 71
     3
 72
     8
 73
     4
 74
     0
 42
0.000000001
 43
0.00000001
 40
0.2499999999999999
 40
0.2499999999999999
 40
0.2499999999999999
 40
0.2499999999999999
 40
0.2857142857142856
 40
0.2857142857142856
 40
0.2857142857142856
 40
0.2857142857142856
 10
-3.626329965680253
 20
450.7357556008893
 30
0.0
 10
-3.626329965680252
 20
450.642512612971
 30
0.0
 10
-3.647717303853514
 20
450.5706569632259
 30
0.0
 10
-3.692040384773668
 20
450.5202128454757
 30
0.0
  0
SPLINE
  5
117
330
1F
100
AcDbEntity
  8
0
  6
Continuous
 62
     7
370
    15
100
AcDbSpline
210
0.0
220
0.0
230
1.0
 70
     8
 71
     3
 72
     8
 73
     4
 74
     0
 42
0.000000001
 43
0.00000001
 40
0.2142857142857142
 40
0.2142857142857142
 40
0.2142857142857142
 40
0.2142857142857142
 40
0.2499999999999999
 40
0.2499999999999999
 40
0.2499999999999999
 40
0.2499999999999999
 10
-3.692040384773668
 20
450.5202128454757
 30
0.0
 10
-3.734863448763118
 20
450.4697687277255
 30
0.0
 10
-3.80826750308176
 20
450.4315666836354
 30
0.0
 10
-3.913752564660292
 20
450.404058308632
 30
0.0
  0
SPLINE
  5
118
330
1F
100
AcDbEntity
  8
0
  6
Continuous
 62
     7
370
    15
100
AcDbSpline
210
0.0
220
0.0
230
1.0
 70
     8
 71
     3
 72
     8
 73
     4
 74
     0
 42
0.000000001
 43
0.00000001
 40
0.0714285714285714
 40
0.0714285714285714
 40
0.0714285714285714
 40
0.0714285714285714
 40
0.1071428571428571
 40
0.1071428571428571
 40
0.1071428571428571
 40
0.1071428571428571
 10
-2.13860349627952
 20
450.404058308632
 30
0.0
 10
-2.245636962431684
 20
450.4361635097134
 30
0.0
 10
-2.320565227502492
 20
450.4774139753077
 30
0.0
 10
-2.36336409767048
 20
450.5263338823058
 30
0.0
  0
SPLINE
  5
119
330
1F
100
AcDbEntity
  8
0
  6
Continuous
 62
     7
370
    15
100
AcDbSpline
210
0.0
220
0.0
230
1.0
 70
     8
 71
     3
 72
     8
 73
     4
 74
     0
 42
0.000000001
 43
0.00000001
 40
0.0357142857142857
 40
0.0357142857142857
 40
0.0357142857142857
 40
0.0357142857142857
 40
0.0714285714285714
 40
0.0714285714285714
 40
0.0714285714285714
 40
0.0714285714285714
 10
-2.36336409767048
 20
450.5263338823058
 30
0.0
 10
-2.404662950907763
 20
450.575253789304
 30
0.0
 10
-2.426050289081026
 20
450.6470852452275
 30
0.0
 10
-2.426050289081026
 20
450.7388040223935
 30
0.0
  0
SPLINE
  5
11D
330
1F
100
AcDbEntity
  8
0
  6
Continuous
 62
     7
370
    15
100
AcDbSpline
210
0.0
220
0.0
230
1.0
 70
     8
 71
     3
 72
     8
 73
     4
 74
     0
 42
0.000000001
 43
0.00000001
 40
0.8928571428571426
 40
0.8928571428571426
 40
0.8928571428571426
 40
0.8928571428571426
 40
0.9285714285714283
 40
0.9285714285714283
 40
0.9285714285714283
 40
0.9285714285714283
 10
-0.2212673391608999
 20
450.9039026600569
 30
0.0
 10
-0.1264517528475343
 20
450.770909223475
 30
0.0
 10
-0.0775318458494146
 20
450.6700209879744
 30
0.0
 10
-0.0775318458494142
 20
450.6042863750595
 30
0.0
  0
SPLINE
  5
11F
330
1F
100
AcDbEntity
  8
0
  6
Continuous
 62
     7
370
    15
100
AcDbSpline
210
0.0
220
0.0
230
1.0
 70
     8
 71
     3
 72
     8
 73
     4
 74
     0
 42
0.000000001
 43
0.00000001
 40
0.625
 40
0.625
 40
0.625
 40
0.625
 40
0.6875
 40
0.6875
 40
0.6875
 40
0.6875
 10
-13.02502475850616
 20
455.1685959569768
 30
0.0
 10
-12.91649127542329
 20
455.1364907558955
 30
0.0
 10
-12.84308722110465
 20
455.0952160964796
 30
0.0
 10
-12.8002641571152
 20
455.0478445940552
 30
0.0
  0
SPLINE
  5
120
330
1F
100
AcDbEntity
  8
0
  6
Continuous
 62
     7
370
    15
100
AcDbSpline
210
0.0
220
0.0
230
1.0
 70
     8
 71
     3
 72
     8
 73
     4
 74
     0
 42
0.000000001
 43
0.00000001
 40
0.5625
 40
0.5625
 40
0.5625
 40
0.5625
 40
0.625
 40
0.625
 40
0.625
 40
0.625
 10
-12.8002641571152
 20
455.0478445940552
 30
0.0
 10
-12.75898949769938
 20
455.0004488978092
 30
0.0
 10
-12.73760215952612
 20
454.9301416526378
 30
0.0
 10
-12.73760215952612
 20
454.8368986647195
 30
0.0
  0
SPLINE
  5
122
330
1F
100
AcDbEntity
  8
0
  6
Continuous
 62
     7
370
    15
100
AcDbSpline
210
0.0
220
0.0
230
1.0
 70
     8
 71
     3
 72
     8
 73
     4
 74
     0
 42
0.000000001
 43
0.00000001
 40
0.4375
 40
0.4375
 40
0.4375
 40
0.4375
 40
0.5
 40
0.5
 40
0.5
 40
0.5
 10
-12.73760215952609
 20
450.7357556008891
 30
0.0
 10
-12.73760215952609
 20
450.6425126129709
 30
0.0
 10
-12.75898949769935
 20
450.5706569632259
 30
0.0
 10
-12.8033125786195
 20
450.5202128454756
 30
0.0
  0
SPLINE
  5
123
330
1F
100
AcDbEntity
  8
0
  6
Continuous
 62
     7
370
    15
100
AcDbSpline
210
0.0
220
0.0
230
1.0
 70
     8
 71
     3
 72
     8
 73
     4
 74
     0
 42
0.000000001
 43
0.00000001
 40
0.375
 40
0.375
 40
0.375
 40
0.375
 40
0.4375
 40
0.4375
 40
0.4375
 40
0.4375
 10
-12.8033125786195
 20
450.5202128454756
 30
0.0
 10
-12.84613564260895
 20
450.4697687277254
 30
0.0
 10
-12.91953969692759
 20
450.4315666836353
 30
0.0
 10
-13.02502475850612
 20
450.4040583086319
 30
0.0
  0
SPLINE
  5
127
330
1F
100
AcDbEntity
  8
0
  6
Continuous
 62
     7
370
    15
100
AcDbSpline
210
0.0
220
0.0
230
1.0
 70
     8
 71
     3
 72
     8
 73
     4
 74
     0
 42
0.000000001
 43
0.00000001
 40
0.125
 40
0.125
 40
0.125
 40
0.125
 40
0.1875
 40
0.1875
 40
0.1875
 40
0.1875
 10
-11.24987569012535
 20
450.4040583086319
 30
0.0
 10
-11.35690915627752
 20
450.4361635097133
 30
0.0
 10
-11.43183742134832
 20
450.4774139753076
 30
0.0
 10
-11.47463629151631
 20
450.5263338823057
 30
0.0
  0
SPLINE
  5
128
330
1F
100
AcDbEntity
  8
0
  6
Continuous
 62
     7
370
    15
100
AcDbSpline
210
0.0
220
0.0
230
1.0
 70
     8
 71
     3
 72
     8
 73
     4
 74
     0
 42
0.000000001
 43
0.00000001
 40
0.0625
 40
0.0625
 40
0.0625
 40
0.0625
 40
0.125
 40
0.125
 40
0.125
 40
0.125
 10
-11.47463629151631
 20
450.5263338823057
 30
0.0
 10
-11.5159351447536
 20
450.576778000056
 30
0.0
 10
-11.53732248292686
 20
450.6470852452274
 30
0.0
 10
-11.53732248292686
 20
450.7403282331457
 30
0.0
  0
SPLINE
  5
12A
330
1F
100
AcDbEntity
  8
0
  6
Continuous
 62
     7
370
    15
100
AcDbSpline
210
0.0
220
0.0
230
1.0
 70
     8
 71
     3
 72
     8
 73
     4
 74
     0
 42
0.000000001
 43
0.00000001
 40
0.9375
 40
0.9375
 40
0.9375
 40
0.9375
 40
1.0
 40
1.0
 40
1.0
 40
1.0
 10
-11.53732248292689
 20
454.8368986647195
 30
0.0
 10
-11.53732248292689
 20
454.9301416526378
 30
0.0
 10
-11.51593514475363
 20
455.0004488978092
 30
0.0
 10
-11.47463629151634
 20
455.0493688048073
 30
0.0
  0
SPLINE
  5
12B
330
1F
100
AcDbEntity
  8
0
  6
Continuous
 62
     7
370
    15
100
AcDbSpline
210
0.0
220
0.0
230
1.0
 70
     8
 71
     3
 72
     8
 73
     4
 74
     0
 42
0.000000001
 43
0.00000001
 40
0.875
 40
0.875
 40
0.875
 40
0.875
 40
0.9375
 40
0.9375
 40
0.9375
 40
0.9375
 10
-11.47463629151634
 20
455.0493688048073
 30
0.0
 10
-11.43183742134836
 20
455.0998129225576
 30
0.0
 10
-11.35690915627755
 20
455.1380149666476
 30
0.0
 10
-11.24987569012539
 20
455.1685959569768
 30
0.0
  0
SPLINE
  5
12E
330
1F
100
AcDbEntity
  8
0
  6
Continuous
 62
     7
370
    15
100
AcDbSpline
210
0.0
220
0.0
230
1.0
 70
     8
 71
     3
 72
     8
 73
     4
 74
     0
 42
0.000000001
 43
0.00000001
 40
0.2
 40
0.2
 40
0.2
 40
0.2
 40
0.3
 40
0.3
 40
0.3
 40
0.3
 10
-4.418943750628547
 20
457.938449800986
 30
0.0
 10
-2.337452514883692
 20
457.9876842276632
 30
0.0
 10
-0.8006609755560671
 20
457.6759226442915
 30
0.0
 10
0.5683706057473535
 20
457.4707348444641
 30
0.0
  0
SPLINE
  5
12F
330
1F
100
AcDbEntity
  8
0
  6
Continuous
 62
     7
370
    15
100
AcDbSpline
210
0.0
220
0.0
230
1.0
 70
     8
 71
     3
 72
     8
 73
     4
 74
     0
 42
0.000000001
 43
0.00000001
 40
0.3
 40
0.3
 40
0.3
 40
0.3
 40
0.4
 40
0.4
 40
0.4
 40
0.4
 10
0.5683706057473535
 20
457.4707348444641
 30
0.0
 10
2.020580545240449
 20
457.2527727069041
 30
0.0
 10
3.34768423394855
 20
456.896881593184
 30
0.0
 10
5.156414326519915
 20
456.6542175639103
 30
0.0
  0
SPLINE
  5
130
330
1F
100
AcDbEntity
  8
0
  6
Continuous
 62
     7
370
    15
100
AcDbSpline
210
0.0
220
0.0
230
1.0
 70
     8
 71
     3
 72
     8
 73
     4
 74
     0
 42
0.000000001
 43
0.00000001
 40
0.4
 40
0.4
 40
0.4
 40
0.4
 40
0.5
 40
0.5
 40
0.5
 40
0.5
 10
5.156414326519915
 20
456.6542175639103
 30
0.0
 10
8.06291487415193
 20
456.2646970383566
 30
0.0
 10
9.192306653864662
 20
456.1976559590827
 30
0.0
 10
11.83623165715909
 20
456.7030165018012
 30
0.0
  0
SPLINE
  5
131
330
1F
100
AcDbEntity
  8
0
  6
Continuous
 62
     7
370
    15
100
AcDbSpline
210
0.0
220
0.0
230
1.0
 70
     8
 71
     3
 72
     8
 73
     4
 74
     0
 42
0.000000001
 43
0.00000001
 40
0.5
 40
0.5
 40
0.5
 40
0.5
 40
0.6
 40
0.6
 40
0.6
 40
0.6
 10
11.83623165715909
 20
456.7030165018012
 30
0.0
 10
11.88423219894162
 20
456.7036939288023
 30
0.0
 10
11.88362735340504
 20
456.7774125027998
 30
0.0
 10
11.82239279128227
 20
456.7674204545357
 30
0.0
  0
SPLINE
  5
132
330
1F
100
AcDbEntity
  8
0
  6
Continuous
 62
     7
370
    15
100
AcDbSpline
210
0.0
220
0.0
230
1.0
 70
     8
 71
     3
 72
     8
 73
     4
 74
     0
 42
0.000000001
 43
0.00000001
 40
0.6
 40
0.6
 40
0.6
 40
0.6
 40
0.7
 40
0.7
 40
0.7
 40
0.7
 10
11.82239279128227
 20
456.7674204545357
 30
0.0
 10
8.540767041866975
 20
456.4611266748145
 30
0.0
 10
7.842073671837967
 20
456.542780822252
 30
0.0
 10
5.639153646170486
 20
456.9365836542046
 30
0.0
  0
SPLINE
  5
133
330
1F
100
AcDbEntity
  8
0
  6
Continuous
 62
     7
370
    15
100
AcDbSpline
210
0.0
220
0.0
230
1.0
 70
     8
 71
     3
 72
     8
 73
     4
 74
     0
 42
0.000000001
 43
0.00000001
 40
0.7
 40
0.7
 40
0.7
 40
0.7
 40
0.7999999999999999
 40
0.7999999999999999
 40
0.7999999999999999
 40
0.7999999999999999
 10
5.639153646170486
 20
456.9365836542046
 30
0.0
 10
3.868069139795492
 20
457.2530146451187
 30
0.0
 10
2.298132065063598
 20
457.5948975362119
 30
0.0
 10
0.7819778554438787
 20
457.8733926150721
 30
0.0
  0
SPLINE
  5
134
330
1F
100
AcDbEntity
  8
0
  6
Continuous
 62
     7
370
    15
100
AcDbSpline
210
0.0
220
0.0
230
1.0
 70
     8
 71
     3
 72
     8
 73
     4
 74
     0
 42
0.000000001
 43
0.00000001
 40
0.7999999999999999
 40
0.7999999999999999
 40
0.7999999999999999
 40
0.7999999999999999
 40
0.8999999999999999
 40
0.8999999999999999
 40
0.8999999999999999
 40
0.8999999999999999
 10
0.7819778554438787
 20
457.8733926150721
 30
0.0
 10
-1.107293468777708
 20
458.220380402494
 30
0.0
 10
-2.886507099164259
 20
458.4737622946757
 30
0.0
 10
-4.620696027808225
 20
458.3880677790539
 30
0.0
  0
SPLINE
  5
135
330
1F
100
AcDbEntity
  8
0
  6
Continuous
 62
     7
370
    15
100
AcDbSpline
210
0.0
220
0.0
230
1.0
 70
     8
 71
     3
 72
     8
 73
     4
 74
     0
 42
0.000000001
 43
0.00000001
 40
0.8999999999999999
 40
0.8999999999999999
 40
0.8999999999999999
 40
0.8999999999999999
 40
1.0
 40
1.0
 40
1.0
 40
1.0
 10
-4.620696027808225
 20
458.3880677790539
 30
0.0
 10
-6.366207664896861
 20
458.3016958364311
 30
0.0
 10
-8.420940534103671
 20
457.9516112398618
 30
0.0
 10
-10.96857412797548
 20
456.2940441437911
 30
0.0
  0
SPLINE
  5
136
330
1F
100
AcDbEntity
  8
0
  6
Continuous
 62
     7
370
    15
100
AcDbSpline
210
0.0
220
0.0
230
1.0
 70
     8
 71
     3
 72
     8
 73
     4
 74
     0
 42
0.000000001
 43
0.00000001
 40
0.0
 40
0.0
 40
0.0
 40
0.0
 40
0.1
 40
0.1
 40
0.1
 40
0.1
 10
-10.96857412797548
 20
456.2940441437911
 30
0.0
 10
-11.01277623978832
 20
456.2639470298911
 30
0.0
 10
-10.98178395449426
 20
456.2079625270258
 30
0.0
 10
-10.9270817241665
 20
456.2351563823501
 30
0.0
  0
SPLINE
  5
137
330
1F
100
AcDbEntity
  8
0
  6
Continuous
 62
     7
370
    15
100
AcDbSpline
210
0.0
220
0.0
230
1.0
 70
     8
 71
     3
 72
     8
 73
     4
 74
     0
 42
0.000000001
 43
0.00000001
 40
0.1
 40
0.1
 40
0.1
 40
0.1
 40
0.2
 40
0.2
 40
0.2
 40
0.2
 10
-10.9270817241665
 20
456.2351563823501
 30
0.0
 10
-8.941301246129148
 20
457.1592635869497
 30
0.0
 10
-6.997884149473449
 20
457.8775297585423
 30
0.0
 10
-4.418943750628547
 20
457.938449800986
 30
0.0
  0
SPLINE
  5
140
330
1F
100
AcDbEntity
  8
0
  6
Continuous
 62
     7
370
    15
100
AcDbSpline
210
0.0
220
0.0
230
1.0
 70
     8
 71
     3
 72
     8
 73
     4
 74
     0
 42
0.000000001
 43
0.00000001
 40
0.2
 40
0.2
 40
0.2
 40
0.2
 40
0.3
 40
0.3
 40
0.3
 40
0.3
 10
-4.713624496047487
 20
459.2818359315387
 30
0.0
 10
-2.030384532875736
 20
459.4466442433445
 30
0.0
 10
-0.3020505090258035
 20
459.1048823213586
 30
0.0
 10
2.091807155627416
 20
458.6816839963284
 30
0.0
  0
SPLINE
  5
141
330
1F
100
AcDbEntity
  8
0
  6
Continuous
 62
     7
370
    15
100
AcDbSpline
210
0.0
220
0.0
230
1.0
 70
     8
 71
     3
 72
     8
 73
     4
 74
     0
 42
0.000000001
 43
0.00000001
 40
0.3
 40
0.3
 40
0.3
 40
0.3
 40
0.4
 40
0.4
 40
0.4
 40
0.4
 10
2.091807155627416
 20
458.6816839963284
 30
0.0
 10
4.788765015568668
 20
458.2044366741499
 30
0.0
 10
5.272593057185075
 20
457.8557795130471
 30
0.0
 10
7.845605969771555
 20
457.5630826609882
 30
0.0
  0
SPLINE
  5
142
330
1F
100
AcDbEntity
  8
0
  6
Continuous
 62
     7
370
    15
100
AcDbSpline
210
0.0
220
0.0
230
1.0
 70
     8
 71
     3
 72
     8
 73
     4
 74
     0
 42
0.000000001
 43
0.00000001
 40
0.4
 40
0.4
 40
0.4
 40
0.4
 40
0.5
 40
0.5
 40
0.5
 40
0.5
 10
7.845605969771555
 20
457.5630826609882
 30
0.0
 10
10.55129779926094
 20
457.3344026605202
 30
0.0
 10
13.70094625259575
 20
458.0325395726557
 30
0.0
 10
16.33216949962212
 20
459.0723658253125
 30
0.0
  0
SPLINE
  5
143
330
1F
100
AcDbEntity
  8
0
  6
Continuous
 62
     7
370
    15
100
AcDbSpline
210
0.0
220
0.0
230
1.0
 70
     8
 71
     3
 72
     8
 73
     4
 74
     0
 42
0.000000001
 43
0.00000001
 40
0.5
 40
0.5
 40
0.5
 40
0.5
 40
0.6
 40
0.6
 40
0.6
 40
0.6
 10
16.33216949962211
 20
459.0723658253125
 30
0.0
 10
16.37958938968954
 20
459.0950596298448
 30
0.0
 10
16.35162133207835
 20
459.1524715681764
 30
0.0
 10
16.30514500104799
 20
459.1390439972644
 30
0.0
  0
SPLINE
  5
144
330
1F
100
AcDbEntity
  8
0
  6
Continuous
 62
     7
370
    15
100
AcDbSpline
210
0.0
220
0.0
230
1.0
 70
     8
 71
     3
 72
     8
 73
     4
 74
     0
 42
0.000000001
 43
0.00000001
 40
0.6
 40
0.6
 40
0.6
 40
0.6
 40
0.7
 40
0.7
 40
0.7
 40
0.7
 10
16.30514500104799
 20
459.1390439972644
 30
0.0
 10
11.71098024344531
 20
457.9037316671868
 30
0.0
 10
10.25729448084297
 20
457.8438035714231
 30
0.0
 10
7.906743756608468
 20
458.0666528609185
 30
0.0
  0
SPLINE
  5
145
330
1F
100
AcDbEntity
  8
0
  6
Continuous
 62
     7
370
    15
100
AcDbSpline
210
0.0
220
0.0
230
1.0
 70
     8
 71
     3
 72
     8
 73
     4
 74
     0
 42
0.000000001
 43
0.00000001
 40
0.7
 40
0.7
 40
0.7
 40
0.7
 40
0.7999999999999999
 40
0.7999999999999999
 40
0.7999999999999999
 40
0.7999999999999999
 10
7.906743756608468
 20
458.0666528609185
 30
0.0
 10
5.696565584502094
 20
458.275614896894
 30
0.0
 10
4.190621167539748
 20
458.8686054609512
 30
0.0
 10
1.632922943939322
 20
459.3404817547651
 30
0.0
  0
SPLINE
  5
146
330
1F
100
AcDbEntity
  8
0
  6
Continuous
 62
     7
370
    15
100
AcDbSpline
210
0.0
220
0.0
230
1.0
 70
     8
 71
     3
 72
     8
 73
     4
 74
     0
 42
0.000000001
 43
0.00000001
 40
0.7999999999999999
 40
0.7999999999999999
 40
0.7999999999999999
 40
0.7999999999999999
 40
0.8999999999999999
 40
0.8999999999999999
 40
0.8999999999999999
 40
0.8999999999999999
 10
1.632922943939322
 20
459.3404817547651
 30
0.0
 10
-0.4698830485144045
 20
459.7288893645314
 30
0.0
 10
-2.704109879154963
 20
459.9382868892934
 30
0.0
 10
-5.489375187436043
 20
459.6639531477248
 30
0.0
  0
SPLINE
  5
147
330
1F
100
AcDbEntity
  8
0
  6
Continuous
 62
     7
370
    15
100
AcDbSpline
210
0.0
220
0.0
230
1.0
 70
     8
 71
     3
 72
     8
 73
     4
 74
     0
 42
0.000000001
 43
0.00000001
 40
0.8999999999999999
 40
0.8999999999999999
 40
0.8999999999999999
 40
0.8999999999999999
 40
1.0
 40
1.0
 40
1.0
 40
1.0
 10
-5.489375187436043
 20
459.6639531477248
 30
0.0
 10
-8.738242502590484
 20
459.2497791181002
 30
0.0
 10
-11.00653423385089
 20
458.3279703265397
 30
0.0
 10
-12.9603304799142
 20
456.4584169668105
 30
0.0
  0
SPLINE
  5
148
330
1F
100
AcDbEntity
  8
0
  6
Continuous
 62
     7
370
    15
100
AcDbSpline
210
0.0
220
0.0
230
1.0
 70
     8
 71
     3
 72
     8
 73
     4
 74
     0
 42
0.000000001
 43
0.00000001
 40
0.0
 40
0.0
 40
0.0
 40
0.0
 40
0.1
 40
0.1
 40
0.1
 40
0.1
 10
-12.9603304799142
 20
456.4584169668105
 30
0.0
 10
-13.01387140681174
 20
456.4046824893412
 30
0.0
 10
-12.95834658655423
 20
456.3392623961054
 30
0.0
 10
-12.88692642559555
 20
456.3858113086001
 30
0.0
  0
SPLINE
  5
149
330
1F
100
AcDbEntity
  8
0
  6
Continuous
 62
     7
370
    15
100
AcDbSpline
210
0.0
220
0.0
230
1.0
 70
     8
 71
     3
 72
     8
 73
     4
 74
     0
 42
0.000000001
 43
0.00000001
 40
0.1
 40
0.1
 40
0.1
 40
0.1
 40
0.2
 40
0.2
 40
0.2
 40
0.2
 10
-12.88692642559555
 20
456.3858113086001
 30
0.0
 10
-11.08059152134903
 20
457.5227273667878
 30
0.0
 10
-9.031786138400655
 20
459.016018415125
 30
0.0
 10
-4.713624496047487
 20
459.2818359315387
 30
0.0
  0
SPLINE
  5
14A
330
1F
100
AcDbEntity
  8
0
  6
Continuous
 62
     7
370
    15
100
AcDbSpline
210
0.0
220
0.0
230
1.0
 70
     8
 71
     3
 72
     8
 73
     4
 74
     0
 42
0.000000001
 43
0.00000001
 40
0.8974358974358979
 40
0.8974358974358979
 40
0.8974358974358979
 40
0.8974358974358979
 40
0.9230769230769236
 40
0.9230769230769236
 40
0.9230769230769236
 40
0.9230769230769236
 10
-17.19458794943376
 20
451.211139998815
 30
0.0
 10
-17.88720867027556
 20
451.211139998815
 30
0.0
 10
-18.44528754996181
 20
451.3930291485735
 30
0.0
 10
-18.8688245884925
 20
451.7568316419122
 30
0.0
  0
SPLINE
  5
14B
330
1F
100
AcDbEntity
  8
0
  6
Continuous
 62
     7
370
    15
100
AcDbSpline
210
0.0
220
0.0
230
1.0
 70
     8
 71
     3
 72
     8
 73
     4
 74
     0
 42
0.000000001
 43
0.00000001
 40
0.8717948717948723
 40
0.8717948717948723
 40
0.8717948717948723
 40
0.8717948717948723
 40
0.8974358974358979
 40
0.8974358974358979
 40
0.8974358974358979
 40
0.8974358974358979
 10
-18.8688245884925
 20
451.7568316419122
 30
0.0
 10
-19.33208788186539
 20
452.1542635470844
 30
0.0
 10
-19.56299371390794
 20
452.6754952366825
 30
0.0
 10
-19.56299371390794
 20
453.3190266937759
 30
0.0
  0
SPLINE
  5
14C
330
1F
100
AcDbEntity
  8
0
  6
Continuous
 62
     7
370
    15
100
AcDbSpline
210
0.0
220
0.0
230
1.0
 70
     8
 71
     3
 72
     8
 73
     4
 74
     0
 42
0.000000001
 43
0.00000001
 40
0.8461538461538466
 40
0.8461538461538466
 40
0.8461538461538466
 40
0.8461538461538466
 40
0.8717948717948723
 40
0.8717948717948723
 40
0.8717948717948723
 40
0.8717948717948723
 10
-19.56299371390794
 20
453.3190266937759
 30
0.0
 10
-19.56299371390795
 20
453.9854696997949
 30
0.0
 10
-19.32599103885673
 20
454.5204676738054
 30
0.0
 10
-18.85048567182359
 20
454.927069037312
 30
0.0
  0
SPLINE
  5
14D
330
1F
100
AcDbEntity
  8
0
  6
Continuous
 62
     7
370
    15
100
AcDbSpline
210
0.0
220
0.0
230
1.0
 70
     8
 71
     3
 72
     8
 73
     4
 74
     0
 42
0.000000001
 43
0.00000001
 40
0.8205128205128209
 40
0.8205128205128209
 40
0.8205128205128209
 40
0.8205128205128209
 40
0.8461538461538466
 40
0.8461538461538466
 40
0.8461538461538466
 40
0.8461538461538466
 10
-18.85048567182359
 20
454.927069037312
 30
0.0
 10
-18.42999705479724
 20
455.2847504938206
 30
0.0
 10
-17.89945074393586
 20
455.4636154158963
 30
0.0
 10
-17.26184677310084
 20
455.4636154158963
 30
0.0
  0
SPLINE
  5
14E
330
1F
100
AcDbEntity
  8
0
  6
Continuous
 62
     7
370
    15
100
AcDbSpline
210
0.0
220
0.0
230
1.0
 70
     8
 71
     3
 72
     8
 73
     4
 74
     0
 42
0.000000001
 43
0.00000001
 40
0.7948717948717953
 40
0.7948717948717953
 40
0.7948717948717953
 40
0.7948717948717953
 40
0.8205128205128209
 40
0.8205128205128209
 40
0.8205128205128209
 40
0.8205128205128209
 10
-17.26184677310084
 20
455.4636154158963
 30
0.0
 10
-16.9484158160481
 20
455.4636154158963
 30
0.0
 10
-16.61509753775282
 20
455.4146955088981
 30
0.0
 10
-16.26189193821497
 20
455.3183799056541
 30
0.0
  0
SPLINE
  5
14F
330
1F
100
AcDbEntity
  8
0
  6
Continuous
 62
     7
370
    15
100
AcDbSpline
210
0.0
220
0.0
230
1.0
 70
     8
 71
     3
 72
     8
 73
     4
 74
     0
 42
0.000000001
 43
0.00000001
 40
0.7692307692307696
 40
0.7692307692307696
 40
0.7692307692307696
 40
0.7692307692307696
 40
0.7948717948717953
 40
0.7948717948717953
 40
0.7948717948717953
 40
0.7948717948717953
 10
-16.26189193821497
 20
455.3183799056541
 30
0.0
 10
-15.91023474325075
 20
455.2205642854793
 30
0.0
 10
-15.64265107787034
 20
455.1043855548141
 30
0.0
 10
-15.46071354046884
 20
454.9668194859757
 30
0.0
  0
SPLINE
  5
150
330
1F
100
AcDbEntity
  8
0
  6
Continuous
 62
     7
370
    15
100
AcDbSpline
210
0.0
220
0.0
230
1.0
 70
     8
 71
     3
 72
     8
 73
     4
 74
     0
 42
0.000000001
 43
0.00000001
 40
0.743589743589744
 40
0.743589743589744
 40
0.743589743589744
 40
0.743589743589744
 40
0.7692307692307696
 40
0.7692307692307696
 40
0.7692307692307696
 40
0.7692307692307696
 10
-15.46071354046884
 20
454.9668194859757
 30
0.0
 10
-15.37814002781573
 20
454.9041574883866
 30
0.0
 10
-15.32307489016602
 20
454.8506407553105
 30
0.0
 10
-15.30016334124059
 20
454.8078418851425
 30
0.0
  0
SPLINE
  5
151
330
1F
100
AcDbEntity
  8
0
  6
Continuous
 62
     7
370
    15
100
AcDbSpline
210
0.0
220
0.0
230
1.0
 70
     8
 71
     3
 72
     8
 73
     4
 74
     0
 42
0.000000001
 43
0.00000001
 40
0.7179487179487183
 40
0.7179487179487183
 40
0.7179487179487183
 40
0.7179487179487183
 40
0.743589743589744
 40
0.743589743589744
 40
0.743589743589744
 40
0.743589743589744
 10
-15.30016334124059
 20
454.8078418851425
 30
0.0
 10
-15.27570338774153
 20
454.7650430149745
 30
0.0
 10
-15.26191290950764
 20
454.693211559051
 30
0.0
 10
-15.2588644880033
 20
454.5953717450548
 30
0.0
  0
SPLINE
  5
155
330
1F
100
AcDbEntity
  8
0
  6
Continuous
 62
     7
370
    15
100
AcDbSpline
210
0.0
220
0.0
230
1.0
 70
     8
 71
     3
 72
     8
 73
     4
 74
     0
 42
0.000000001
 43
0.00000001
 40
0.6153846153846156
 40
0.6153846153846156
 40
0.6153846153846156
 40
0.6153846153846156
 40
0.6410256410256413
 40
0.6410256410256413
 40
0.6410256410256413
 40
0.6410256410256413
 10
-14.53871119833665
 20
456.0597511767437
 30
0.0
 10
-14.62280892174193
 20
455.9909681423246
 30
0.0
 10
-14.69621297606057
 20
455.957338730491
 30
0.0
 10
-14.75889916747111
 20
455.957338730491
 30
0.0
  0
SPLINE
  5
156
330
1F
100
AcDbEntity
  8
0
  6
Continuous
 62
     7
370
    15
100
AcDbSpline
210
0.0
220
0.0
230
1.0
 70
     8
 71
     3
 72
     8
 73
     4
 74
     0
 42
0.000000001
 43
0.00000001
 40
0.58974358974359
 40
0.58974358974359
 40
0.58974358974359
 40
0.58974358974359
 40
0.6153846153846156
 40
0.6153846153846156
 40
0.6153846153846156
 40
0.6153846153846156
 10
-14.75889916747111
 20
455.957338730491
 30
0.0
 10
-14.84452110162855
 20
455.957338730491
 30
0.0
 10
-14.98975661187074
 20
455.9970649853332
 30
0.0
 10
-15.19312987508844
 20
456.0780900934126
 30
0.0
  0
SPLINE
  5
157
330
1F
100
AcDbEntity
  8
0
  6
Continuous
 62
     7
370
    15
100
AcDbSpline
210
0.0
220
0.0
230
1.0
 70
     8
 71
     3
 72
     8
 73
     4
 74
     0
 42
0.000000001
 43
0.00000001
 40
0.5641025641025643
 40
0.5641025641025643
 40
0.5641025641025643
 40
0.5641025641025643
 40
0.58974358974359
 40
0.58974358974359
 40
0.58974358974359
 40
0.58974358974359
 10
-15.19312987508844
 20
456.0780900934126
 30
0.0
 10
-15.58606172946847
 20
456.2294224466635
 30
0.0
 10
-15.93774311825415
 20
456.3379559297463
 30
0.0
 10
-16.24660144305038
 20
456.4021421380875
 30
0.0
  0
SPLINE
  5
158
330
1F
100
AcDbEntity
  8
0
  6
Continuous
 62
     7
370
    15
100
AcDbSpline
210
0.0
220
0.0
230
1.0
 70
     8
 71
     3
 72
     8
 73
     4
 74
     0
 42
0.000000001
 43
0.00000001
 40
0.5384615384615387
 40
0.5384615384615387
 40
0.5384615384615387
 40
0.5384615384615387
 40
0.5641025641025643
 40
0.5641025641025643
 40
0.5641025641025643
 40
0.5641025641025643
 10
-16.24660144305038
 20
456.4021421380875
 30
0.0
 10
-16.55698397859878
 20
456.4663525402502
 30
0.0
 10
-16.88570543081611
 20
456.4984335475102
 30
0.0
 10
-17.23431420427599
 20
456.4984335475102
 30
0.0
  0
SPLINE
  5
159
330
1F
100
AcDbEntity
  8
0
  6
Continuous
 62
     7
370
    15
100
AcDbSpline
210
0.0
220
0.0
230
1.0
 70
     8
 71
     3
 72
     8
 73
     4
 74
     0
 42
0.000000001
 43
0.00000001
 40
0.512820512820513
 40
0.512820512820513
 40
0.512820512820513
 40
0.512820512820513
 40
0.5384615384615387
 40
0.5384615384615387
 40
0.5384615384615387
 40
0.5384615384615387
 10
-17.23431420427599
 20
456.4984335475102
 30
0.0
 10
-18.33364541097556
 20
456.4895317295886
 30
0.0
 10
-19.21209222243842
 20
456.2072773621024
 30
0.0
 10
-19.87119094541487
 20
455.6531580709383
 30
0.0
  0
SPLINE
  5
15A
330
1F
100
AcDbEntity
  8
0
  6
Continuous
 62
     7
370
    15
100
AcDbSpline
210
0.0
220
0.0
230
1.0
 70
     8
 71
     3
 72
     8
 73
     4
 74
     0
 42
0.000000001
 43
0.00000001
 40
0.4871794871794873
 40
0.4871794871794873
 40
0.4871794871794873
 40
0.4871794871794873
 40
0.512820512820513
 40
0.512820512820513
 40
0.512820512820513
 40
0.512820512820513
 10
-19.87119094541487
 20
455.6531580709383
 30
0.0
 10
-20.57160597297287
 20
455.0758611648566
 30
0.0
 10
-20.92246888736526
 20
454.2972997697325
 30
0.0
 10
-20.92529941284466
 20
453.3190266937758
 30
0.0
  0
SPLINE
  5
15B
330
1F
100
AcDbEntity
  8
0
  6
Continuous
 62
     7
370
    15
100
AcDbSpline
210
0.0
220
0.0
230
1.0
 70
     8
 71
     3
 72
     8
 73
     4
 74
     0
 42
0.000000001
 43
0.00000001
 40
0.4615384615384617
 40
0.4615384615384617
 40
0.4615384615384617
 40
0.4615384615384617
 40
0.4871794871794873
 40
0.4871794871794873
 40
0.4871794871794873
 40
0.4871794871794873
 10
-20.92529941284466
 20
453.3190266937758
 30
0.0
 10
-20.92788692391888
 20
452.2689212548692
 30
0.0
 10
-20.5369788657317
 20
451.4471075718314
 30
0.0
 10
-19.75405099729755
 20
450.8536134748991
 30
0.0
  0
SPLINE
  5
15C
330
1F
100
AcDbEntity
  8
0
  6
Continuous
 62
     7
370
    15
100
AcDbSpline
210
0.0
220
0.0
230
1.0
 70
     8
 71
     3
 72
     8
 73
     4
 74
     0
 42
0.000000001
 43
0.00000001
 40
0.435897435897436
 40
0.435897435897436
 40
0.435897435897436
 40
0.435897435897436
 40
0.4615384615384617
 40
0.4615384615384617
 40
0.4615384615384617
 40
0.4615384615384617
 10
-19.75405099729755
 20
450.8536134748991
 30
0.0
 10
-19.12614757538421
 20
450.3898369464206
 30
0.0
 10
-18.31832874772664
 20
450.1630284816404
 30
0.0
 10
-17.32912979058931
 20
450.1717008473016
 30
0.0
  0
SPLINE
  5
15D
330
1F
100
AcDbEntity
  8
0
  6
Continuous
 62
     7
370
    15
100
AcDbSpline
210
0.0
220
0.0
230
1.0
 70
     8
 71
     3
 72
     8
 73
     4
 74
     0
 42
0.000000001
 43
0.00000001
 40
0.4102564102564104
 40
0.4102564102564104
 40
0.4102564102564104
 40
0.4102564102564104
 40
0.435897435897436
 40
0.435897435897436
 40
0.435897435897436
 40
0.435897435897436
 10
-17.32912979058931
 20
450.1717008473016
 30
0.0
 10
-16.24048040622021
 20
450.1717008473016
 30
0.0
 10
-15.11515318851326
 20
450.5033981395588
 30
0.0
 10
-13.95309974982552
 20
451.1652685133212
 30
0.0
  0
SPLINE
  5
15F
330
1F
100
AcDbEntity
  8
0
  6
Continuous
 62
     7
370
    15
100
AcDbSpline
210
0.0
220
0.0
230
1.0
 70
     8
 71
     3
 72
     8
 73
     4
 74
     0
 42
0.000000001
 43
0.00000001
 40
0.358974358974359
 40
0.358974358974359
 40
0.358974358974359
 40
0.358974358974359
 40
0.3846153846153847
 40
0.3846153846153847
 40
0.3846153846153847
 40
0.3846153846153847
 10
-13.95309974982552
 20
451.2768746117299
 30
0.0
 10
-14.06320583130348
 20
451.3074314082376
 30
0.0
 10
-14.13965830712646
 20
451.3456576461491
 30
0.0
 10
-14.18093296654227
 20
451.3930291485735
 30
0.0
  0
SPLINE
  5
160
330
1F
100
AcDbEntity
  8
0
  6
Continuous
 62
     7
370
    15
100
AcDbSpline
210
0.0
220
0.0
230
1.0
 70
     8
 71
     3
 72
     8
 73
     4
 74
     0
 42
0.000000001
 43
0.00000001
 40
0.3333333333333334
 40
0.3333333333333334
 40
0.3333333333333334
 40
0.3333333333333334
 40
0.358974358974359
 40
0.358974358974359
 40
0.358974358974359
 40
0.358974358974359
 10
-14.18093296654227
 20
451.3930291485735
 30
0.0
 10
-14.22223181977956
 20
451.4404248448196
 30
0.0
 10
-14.24361915795282
 20
451.5107320899909
 30
0.0
 10
-14.24361915795282
 20
451.6039750779091
 30
0.0
  0
SPLINE
  5
162
330
1F
100
AcDbEntity
  8
0
  6
Continuous
 62
     7
370
    15
100
AcDbSpline
210
0.0
220
0.0
230
1.0
 70
     8
 71
     3
 72
     8
 73
     4
 74
     0
 42
0.000000001
 43
0.00000001
 40
0.282051282051282
 40
0.282051282051282
 40
0.282051282051282
 40
0.282051282051282
 40
0.3076923076923077
 40
0.3076923076923077
 40
0.3076923076923077
 40
0.3076923076923077
 10
-14.24361915795283
 20
452.8574085802626
 30
0.0
 10
-14.24361915795283
 20
452.9506515681808
 30
0.0
 10
-14.22223181977957
 20
453.0209588133523
 30
0.0
 10
-14.17940875579012
 20
453.0683303157767
 30
0.0
  0
SPLINE
  5
163
330
1F
100
AcDbEntity
  8
0
  6
Continuous
 62
     7
370
    15
100
AcDbSpline
210
0.0
220
0.0
230
1.0
 70
     8
 71
     3
 72
     8
 73
     4
 74
     0
 42
0.000000001
 43
0.00000001
 40
0.2564102564102564
 40
0.2564102564102564
 40
0.2564102564102564
 40
0.2564102564102564
 40
0.282051282051282
 40
0.282051282051282
 40
0.282051282051282
 40
0.282051282051282
 10
-14.17940875579012
 20
453.0683303157767
 30
0.0
 10
-14.13508567486997
 20
453.1157260120227
 30
0.0
 10
-14.06015740979916
 20
453.1539522499342
 30
0.0
 10
-13.95309974982553
 20
453.1845090464419
 30
0.0
  0
SPLINE
  5
166
330
1F
100
AcDbEntity
  8
0
  6
Continuous
 62
     7
370
    15
100
AcDbSpline
210
0.0
220
0.0
230
1.0
 70
     8
 71
     3
 72
     8
 73
     4
 74
     0
 42
0.000000001
 43
0.00000001
 40
0.1794871794871795
 40
0.1794871794871795
 40
0.1794871794871795
 40
0.1794871794871795
 40
0.2051282051282051
 40
0.2051282051282051
 40
0.2051282051282051
 40
0.2051282051282051
 10
-16.85207601898256
 20
453.3281961521104
 30
0.0
 10
-16.9453432007223
 20
453.3281961521104
 30
0.0
 10
-17.01417462278443
 20
453.3480592795315
 30
0.0
 10
-17.06002191445676
 20
453.3893339389473
 30
0.0
  0
SPLINE
  5
167
330
1F
100
AcDbEntity
  8
0
  6
Continuous
 62
     7
370
    15
100
AcDbSpline
210
0.0
220
0.0
230
1.0
 70
     8
 71
     3
 72
     8
 73
     4
 74
     0
 42
0.000000001
 43
0.00000001
 40
0.1538461538461538
 40
0.1538461538461538
 40
0.1538461538461538
 40
0.1538461538461538
 40
0.1794871794871795
 40
0.1794871794871795
 40
0.1794871794871795
 40
0.1794871794871795
 10
-17.06002191445676
 20
453.3893339389473
 30
0.0
 10
-17.10741761070271
 20
453.429084387611
 30
0.0
 10
-17.14411963786203
 20
453.5055126696125
 30
0.0
 10
-17.17467643436975
 20
453.6155703634475
 30
0.0
  0
SPLINE
  5
16B
330
1F
100
AcDbEntity
  8
0
  6
Continuous
 62
     7
370
    15
100
AcDbSpline
210
0.0
220
0.0
230
1.0
 70
     8
 71
     3
 72
     8
 73
     4
 74
     0
 42
0.000000001
 43
0.00000001
 40
0.0512820512820513
 40
0.0512820512820513
 40
0.0512820512820513
 40
0.0512820512820513
 40
0.0769230769230769
 40
0.0769230769230769
 40
0.0769230769230769
 40
0.0769230769230769
 10
-17.17467643436974
 20
452.18941716967
 30
0.0
 10
-17.14564384861419
 20
452.2979506527529
 30
0.0
 10
-17.1074176107027
 20
452.3713063194286
 30
0.0
 10
-17.06002191445675
 20
452.4141051895966
 30
0.0
  0
SPLINE
  5
16C
330
1F
100
AcDbEntity
  8
0
  6
Continuous
 62
     7
370
    15
100
AcDbSpline
210
0.0
220
0.0
230
1.0
 70
     8
 71
     3
 72
     8
 73
     4
 74
     0
 42
0.000000001
 43
0.00000001
 40
0.0256410256410256
 40
0.0256410256410256
 40
0.0256410256410256
 40
0.0256410256410256
 40
0.0512820512820513
 40
0.0512820512820513
 40
0.0512820512820513
 40
0.0512820512820513
 10
-17.06002191445675
 20
452.4141051895966
 30
0.0
 10
-17.01417462278443
 20
452.4553798490124
 30
0.0
 10
-16.94534320072229
 20
452.4767913810072
 30
0.0
 10
-16.85207601898255
 20
452.4767913810072
 30
0.0
  0
SPLINE
  5
16F
330
1F
100
AcDbEntity
  8
0
  6
Continuous
 62
     7
370
    15
100
AcDbSpline
210
0.0
220
0.0
230
1.0
 70
     8
 71
     3
 72
     8
 73
     4
 74
     0
 42
0.000000001
 43
0.00000001
 40
0.9487179487179492
 40
0.9487179487179492
 40
0.9487179487179492
 40
0.9487179487179492
 40
0.9743589743589749
 40
0.9743589743589749
 40
0.9743589743589749
 40
0.9743589743589749
 10
-15.34601063291289
 20
451.6452497373251
 30
0.0
 10
-15.58453751871627
 20
451.5107320899909
 30
0.0
 10
-15.86893589001344
 20
451.4052712222339
 30
0.0
 10
-16.1961331314786
 20
451.3272945356588
 30
0.0
  0
SPLINE
  5
170
330
1F
100
AcDbEntity
  8
0
  6
Continuous
 62
     7
370
    15
100
AcDbSpline
210
0.0
220
0.0
230
1.0
 70
     8
 71
     3
 72
     8
 73
     4
 74
     0
 42
0.000000001
 43
0.00000001
 40
0.9230769230769236
 40
0.9230769230769236
 40
0.9230769230769236
 40
0.9230769230769236
 40
0.9487179487179492
 40
0.9487179487179492
 40
0.9487179487179492
 40
0.9487179487179492
 10
-16.1961331314786
 20
451.3272945356588
 30
0.0
 10
-16.52487877751739
 20
451.249342042905
 30
0.0
 10
-16.85819705581267
 20
451.211139998815
 30
0.0
 10
-17.19458794943376
 20
451.211139998815
 30
0.0
  0
SPLINE
  5
171
330
1F
100
AcDbEntity
  8
0
  6
Continuous
 62
     7
370
    15
100
AcDbSpline
210
0.0
220
0.0
230
1.0
 70
     8
 71
     3
 72
     8
 73
     4
 74
     0
 42
0.000000001
 43
0.00000001
 40
0.6666666666666666
 40
0.6666666666666666
 40
0.6666666666666666
 40
0.6666666666666666
 40
0.7333333333333333
 40
0.7333333333333333
 40
0.7333333333333333
 40
0.7333333333333333
 10
-7.425848657331807
 20
450.2787101196323
 30
0.0
 10
-6.959512748633129
 20
450.2787101196323
 30
0.0
 10
-6.571129332688131
 20
450.3230332005526
 30
0.0
 10
-6.259246780209033
 20
450.4101551516407
 30
0.0
  0
SPLINE
  5
172
330
1F
100
AcDbEntity
  8
0
  6
Continuous
 62
     7
370
    15
100
AcDbSpline
210
0.0
220
0.0
230
1.0
 70
     8
 71
     3
 72
     8
 73
     4
 74
     0
 42
0.000000001
 43
0.00000001
 40
0.6
 40
0.6
 40
0.6
 40
0.6
 40
0.6666666666666666
 40
0.6666666666666666
 40
0.6666666666666666
 40
0.6666666666666666
 10
-6.259246780209033
 20
450.4101551516407
 30
0.0
 10
-5.947315840087006
 20
450.4988255073024
 30
0.0
 10
-5.675159542450098
 20
450.6409884022189
 30
0.0
 10
-5.445826308802642
 20
450.8381680471421
 30
0.0
  0
SPLINE
  5
173
330
1F
100
AcDbEntity
  8
0
  6
Continuous
 62
     7
370
    15
100
AcDbSpline
210
0.0
220
0.0
230
1.0
 70
     8
 71
     3
 72
     8
 73
     4
 74
     0
 42
0.000000001
 43
0.00000001
 40
0.5333333333333333
 40
0.5333333333333333
 40
0.5333333333333333
 40
0.5333333333333333
 40
0.6
 40
0.6
 40
0.6
 40
0.6
 10
-5.445826308802642
 20
450.8381680471421
 30
0.0
 10
-4.935143125362351
 20
451.2799230332344
 30
0.0
 10
-4.679801533642205
 20
451.9295513333365
 30
0.0
 10
-4.679801533642211
 20
452.7870771412698
 30
0.0
  0
SPLINE
  5
174
330
1F
100
AcDbEntity
  8
0
  6
Continuous
 62
     7
370
    15
100
AcDbSpline
210
0.0
220
0.0
230
1.0
 70
     8
 71
     3
 72
     8
 73
     4
 74
     0
 42
0.000000001
 43
0.00000001
 40
0.4666666666666666
 40
0.4666666666666666
 40
0.4666666666666666
 40
0.4666666666666666
 40
0.5333333333333333
 40
0.5333333333333333
 40
0.5333333333333333
 40
0.5333333333333333
 10
-4.679801533642211
 20
452.7870771412698
 30
0.0
 10
-4.679801533642214
 20
453.2487194486047
 30
0.0
 10
-4.756254009465193
 20
453.6537724075376
 30
0.0
 10
-4.907586362716049
 20
453.9992359842073
 30
0.0
  0
SPLINE
  5
175
330
1F
100
AcDbEntity
  8
0
  6
Continuous
 62
     7
370
    15
100
AcDbSpline
210
0.0
220
0.0
230
1.0
 70
     8
 71
     3
 72
     8
 73
     4
 74
     0
 42
0.000000001
 43
0.00000001
 40
0.4
 40
0.4
 40
0.4
 40
0.4
 40
0.4666666666666666
 40
0.4666666666666666
 40
0.4666666666666666
 40
0.4666666666666666
 10
-4.907586362716049
 20
453.9992359842073
 30
0.0
 10
-5.126250121098344
 20
454.4960319141279
 30
0.0
 10
-5.482504142140527
 20
454.8506407553106
 30
0.0
 10
-5.979445234989858
 20
455.0661835107242
 30
0.0
  0
SPLINE
  5
176
330
1F
100
AcDbEntity
  8
0
  6
Continuous
 62
     7
370
    15
100
AcDbSpline
210
0.0
220
0.0
230
1.0
 70
     8
 71
     3
 72
     8
 73
     4
 74
     0
 42
0.000000001
 43
0.00000001
 40
0.3333333333333333
 40
0.3333333333333333
 40
0.3333333333333333
 40
0.3333333333333333
 40
0.4
 40
0.4
 40
0.4
 40
0.4
 10
-5.979445234989858
 20
455.0661835107242
 30
0.0
 10
-6.331102429954075
 20
455.217515863975
 30
0.0
 10
-6.814253044569519
 20
455.2939441459766
 30
0.0
 10
-7.425848657331843
 20
455.2939441459765
 30
0.0
  0
SPLINE
  5
179
330
1F
100
AcDbEntity
  8
0
  6
Continuous
 62
     7
370
    15
100
AcDbSpline
210
0.0
220
0.0
230
1.0
 70
     8
 71
     3
 72
     8
 73
     4
 74
     0
 42
0.000000001
 43
0.00000001
 40
0.1333333333333333
 40
0.1333333333333333
 40
0.1333333333333333
 40
0.1333333333333333
 40
0.2
 40
0.2
 40
0.2
 40
0.2
 10
-10.36914800740902
 20
455.1685959569768
 30
0.0
 10
-10.26061452432615
 20
455.1364907558955
 30
0.0
 10
-10.18721047000751
 20
455.0952160964796
 30
0.0
 10
-10.14438740601806
 20
455.0478445940552
 30
0.0
  0
SPLINE
  5
17A
330
1F
100
AcDbEntity
  8
0
  6
Continuous
 62
     7
370
    15
100
AcDbSpline
210
0.0
220
0.0
230
1.0
 70
     8
 71
     3
 72
     8
 73
     4
 74
     0
 42
0.000000001
 43
0.00000001
 40
0.0666666666666667
 40
0.0666666666666667
 40
0.0666666666666667
 40
0.0666666666666667
 40
0.1333333333333333
 40
0.1333333333333333
 40
0.1333333333333333
 40
0.1333333333333333
 10
-10.14438740601806
 20
455.0478445940552
 30
0.0
 10
-10.10311274660224
 20
455.0004488978092
 30
0.0
 10
-10.08172540842898
 20
454.9301416526378
 30
0.0
 10
-10.08172540842898
 20
454.8368986647195
 30
0.0
  0
SPLINE
  5
17C
330
1F
100
AcDbEntity
  8
0
  6
Continuous
 62
     7
370
    15
100
AcDbSpline
210
0.0
220
0.0
230
1.0
 70
     8
 71
     3
 72
     8
 73
     4
 74
     0
 42
0.000000001
 43
0.00000001
 40
0.9333333333333332
 40
0.9333333333333332
 40
0.9333333333333332
 40
0.9333333333333332
 40
1.0
 40
1.0
 40
1.0
 40
1.0
 10
-10.08172540842895
 20
450.7357556008891
 30
0.0
 10
-10.08172540842895
 20
450.6425126129709
 30
0.0
 10
-10.10311274660221
 20
450.5706569632259
 30
0.0
 10
-10.14743582752237
 20
450.5202128454756
 30
0.0
  0
SPLINE
  5
17D
330
1F
100
AcDbEntity
  8
0
  6
Continuous
 62
     7
370
    15
100
AcDbSpline
210
0.0
220
0.0
230
1.0
 70
     8
 71
     3
 72
     8
 73
     4
 74
     0
 42
0.000000001
 43
0.00000001
 40
0.8666666666666666
 40
0.8666666666666666
 40
0.8666666666666666
 40
0.8666666666666666
 40
0.9333333333333332
 40
0.9333333333333332
 40
0.9333333333333332
 40
0.9333333333333332
 10
-10.14743582752237
 20
450.5202128454756
 30
0.0
 10
-10.19025889151181
 20
450.4697687277254
 30
0.0
 10
-10.26366294583045
 20
450.4315666836353
 30
0.0
 10
-10.36914800740899
 20
450.4040583086319
 30
0.0
  0
SPLINE
  5
181
330
1F
100
AcDbEntity
  8
0
  6
Continuous
 62
     7
370
    15
100
AcDbSpline
210
0.0
220
0.0
230
1.0
 70
     8
 71
     3
 72
     8
 73
     4
 74
     0
 42
0.000000001
 43
0.00000001
 40
0.7931034482758619
 40
0.7931034482758619
 40
0.7931034482758619
 40
0.7931034482758619
 40
0.8275862068965515
 40
0.8275862068965515
 40
0.8275862068965515
 40
0.8275862068965515
 10
6.137764112700771
 20
455.168595956977
 30
0.0
 10
6.247870194178733
 20
455.1364907558956
 30
0.0
 10
6.324322670001703
 20
455.0952160964798
 30
0.0
 10
6.364073118665358
 20
455.0478445940553
 30
0.0
  0
SPLINE
  5
182
330
1F
100
AcDbEntity
  8
0
  6
Continuous
 62
     7
370
    15
100
AcDbSpline
210
0.0
220
0.0
230
1.0
 70
     8
 71
     3
 72
     8
 73
     4
 74
     0
 42
0.000000001
 43
0.00000001
 40
0.7586206896551723
 40
0.7586206896551723
 40
0.7586206896551723
 40
0.7586206896551723
 40
0.7931034482758619
 40
0.7931034482758619
 40
0.7931034482758619
 40
0.7931034482758619
 10
6.364073118665358
 20
455.0478445940553
 30
0.0
 10
6.405371971902642
 20
455.0004488978093
 30
0.0
 10
6.425235099323741
 20
454.9301416526379
 30
0.0
 10
6.425235099323741
 20
454.8368986647196
 30
0.0
  0
SPLINE
  5
184
330
1F
100
AcDbEntity
  8
0
  6
Continuous
 62
     7
370
    15
100
AcDbSpline
210
0.0
220
0.0
230
1.0
 70
     8
 71
     3
 72
     8
 73
     4
 74
     0
 42
0.000000001
 43
0.00000001
 40
0.689655172413793
 40
0.689655172413793
 40
0.689655172413793
 40
0.689655172413793
 40
0.7241379310344827
 40
0.7241379310344827
 40
0.7241379310344827
 40
0.7241379310344827
 10
6.425235099323758
 20
452.4232988417526
 30
0.0
 10
6.42523509932376
 20
452.1435698779978
 30
0.0
 10
6.400750952003241
 20
451.9280271225843
 30
0.0
 10
6.353379449578752
 20
451.7797673846592
 30
0.0
  0
SPLINE
  5
185
330
1F
100
AcDbEntity
  8
0
  6
Continuous
 62
     7
370
    15
100
AcDbSpline
210
0.0
220
0.0
230
1.0
 70
     8
 71
     3
 72
     8
 73
     4
 74
     0
 42
0.000000001
 43
0.00000001
 40
0.6551724137931034
 40
0.6551724137931034
 40
0.6551724137931034
 40
0.6551724137931034
 40
0.689655172413793
 40
0.689655172413793
 40
0.689655172413793
 40
0.689655172413793
 10
6.353379449578752
 20
451.7797673846592
 30
0.0
 10
6.305959559511336
 20
451.6299592421605
 30
0.0
 10
6.221861836106069
 20
451.5076836684867
 30
0.0
 10
6.102610490115104
 20
451.4113680652426
 30
0.0
  0
SPLINE
  5
186
330
1F
100
AcDbEntity
  8
0
  6
Continuous
 62
     7
370
    15
100
AcDbSpline
210
0.0
220
0.0
230
1.0
 70
     8
 71
     3
 72
     8
 73
     4
 74
     0
 42
0.000000001
 43
0.00000001
 40
0.6206896551724138
 40
0.6206896551724138
 40
0.6206896551724138
 40
0.6206896551724138
 40
0.6551724137931034
 40
0.6551724137931034
 40
0.6551724137931034
 40
0.6551724137931034
 10
6.102610490115104
 20
451.4113680652426
 30
0.0
 10
5.857962567481594
 20
451.2172610356453
 30
0.0
 10
5.503256951013045
 20
451.1209454324011
 30
0.0
 10
5.039969463818701
 20
451.1209454324011
 30
0.0
  0
SPLINE
  5
187
330
1F
100
AcDbEntity
  8
0
  6
Continuous
 62
     7
370
    15
100
AcDbSpline
210
0.0
220
0.0
230
1.0
 70
     8
 71
     3
 72
     8
 73
     4
 74
     0
 42
0.000000001
 43
0.00000001
 40
0.5862068965517242
 40
0.5862068965517242
 40
0.5862068965517242
 40
0.5862068965517242
 40
0.6206896551724138
 40
0.6206896551724138
 40
0.6206896551724138
 40
0.6206896551724138
 10
5.039969463818701
 20
451.1209454324011
 30
0.0
 10
4.578230381197986
 20
451.1209454324011
 30
0.0
 10
4.223500570907968
 20
451.2172610356453
 30
0.0
 10
3.978852648274456
 20
451.4113680652426
 30
0.0
  0
SPLINE
  5
188
330
1F
100
AcDbEntity
  8
0
  6
Continuous
 62
     7
370
    15
100
AcDbSpline
210
0.0
220
0.0
230
1.0
 70
     8
 71
     3
 72
     8
 73
     4
 74
     0
 42
0.000000001
 43
0.00000001
 40
0.5517241379310346
 40
0.5517241379310346
 40
0.5517241379310346
 40
0.5517241379310346
 40
0.5862068965517242
 40
0.5862068965517242
 40
0.5862068965517242
 40
0.5862068965517242
 10
3.978852648274456
 20
451.4113680652426
 30
0.0
 10
3.856528686957696
 20
451.5076836684867
 30
0.0
 10
3.77090675280026
 20
451.6299592421605
 30
0.0
 10
3.720462635049971
 20
451.7797673846592
 30
0.0
  0
SPLINE
  5
189
330
1F
100
AcDbEntity
  8
0
  6
Continuous
 62
     7
370
    15
100
AcDbSpline
210
0.0
220
0.0
230
1.0
 70
     8
 71
     3
 72
     8
 73
     4
 74
     0
 42
0.000000001
 43
0.00000001
 40
0.517241379310345
 40
0.517241379310345
 40
0.517241379310345
 40
0.517241379310345
 40
0.5517241379310346
 40
0.5517241379310346
 40
0.5517241379310346
 40
0.5517241379310346
 10
3.720462635049971
 20
451.7797673846592
 30
0.0
 10
3.67151853423039
 20
451.9280271225843
 30
0.0
 10
3.647058580731329
 20
452.1435698779978
 30
0.0
 10
3.647058580731327
 20
452.4232988417526
 30
0.0
  0
SPLINE
  5
18B
330
1F
100
AcDbEntity
  8
0
  6
Continuous
 62
     7
370
    15
100
AcDbSpline
210
0.0
220
0.0
230
1.0
 70
     8
 71
     3
 72
     8
 73
     4
 74
     0
 42
0.000000001
 43
0.00000001
 40
0.4482758620689656
 40
0.4482758620689656
 40
0.4482758620689656
 40
0.4482758620689656
 40
0.4827586206896553
 40
0.4827586206896553
 40
0.4827586206896553
 40
0.4827586206896553
 10
3.647058580731311
 20
454.8368986647196
 30
0.0
 10
3.64705858073131
 20
454.9301416526379
 30
0.0
 10
3.668470112726033
 20
455.0004488978093
 30
0.0
 10
3.709744772141854
 20
455.0493688048074
 30
0.0
  0
SPLINE
  5
18C
330
1F
100
AcDbEntity
  8
0
  6
Continuous
 62
     7
370
    15
100
AcDbSpline
210
0.0
220
0.0
230
1.0
 70
     8
 71
     3
 72
     8
 73
     4
 74
     0
 42
0.000000001
 43
0.00000001
 40
0.413793103448276
 40
0.413793103448276
 40
0.413793103448276
 40
0.413793103448276
 40
0.4482758620689656
 40
0.4482758620689656
 40
0.4482758620689656
 40
0.4482758620689656
 10
3.709744772141854
 20
455.0493688048074
 30
0.0
 10
3.751019431557671
 20
455.0998129225577
 30
0.0
 10
3.827471907380646
 20
455.1380149666477
 30
0.0
 10
3.937553795037146
 20
455.168595956977
 30
0.0
  0
SPLINE
  5
190
330
1F
100
AcDbEntity
  8
0
  6
Continuous
 62
     7
370
    15
100
AcDbSpline
210
0.0
220
0.0
230
1.0
 70
     8
 71
     3
 72
     8
 73
     4
 74
     0
 42
0.000000001
 43
0.00000001
 40
0.2758620689655173
 40
0.2758620689655173
 40
0.2758620689655173
 40
0.2758620689655173
 40
0.310344827586207
 40
0.310344827586207
 40
0.310344827586207
 40
0.310344827586207
 10
2.159356305152041
 20
455.168595956977
 30
0.0
 10
2.267913982056371
 20
455.1364907558956
 30
0.0
 10
2.341293842553547
 20
455.0952160964798
 30
0.0
 10
2.384092712721534
 20
455.0478445940553
 30
0.0
  0
SPLINE
  5
191
330
1F
100
AcDbEntity
  8
0
  6
Continuous
 62
     7
370
    15
100
AcDbSpline
210
0.0
220
0.0
230
1.0
 70
     8
 71
     3
 72
     8
 73
     4
 74
     0
 42
0.000000001
 43
0.00000001
 40
0.2413793103448276
 40
0.2413793103448276
 40
0.2413793103448276
 40
0.2413793103448276
 40
0.2758620689655173
 40
0.2758620689655173
 40
0.2758620689655173
 40
0.2758620689655173
 10
2.384092712721534
 20
455.0478445940553
 30
0.0
 10
2.425391565958817
 20
455.0004488978093
 30
0.0
 10
2.446803097953546
 20
454.9301416526379
 30
0.0
 10
2.446803097953547
 20
454.8368986647196
 30
0.0
  0
SPLINE
  5
193
330
1F
100
AcDbEntity
  8
0
  6
Continuous
 62
     7
370
    15
100
AcDbSpline
210
0.0
220
0.0
230
1.0
 70
     8
 71
     3
 72
     8
 73
     4
 74
     0
 42
0.000000001
 43
0.00000001
 40
0.1724137931034483
 40
0.1724137931034483
 40
0.1724137931034483
 40
0.1724137931034483
 40
0.206896551724138
 40
0.206896551724138
 40
0.206896551724138
 40
0.206896551724138
 10
2.446803097953565
 20
452.1817719220879
 30
0.0
 10
2.446803097953568
 20
451.7797673846592
 30
0.0
 10
2.50031983102965
 20
451.443473266324
 30
0.0
 10
2.607353297181816
 20
451.1744379716558
 30
0.0
  0
SPLINE
  5
194
330
1F
100
AcDbEntity
  8
0
  6
Continuous
 62
     7
370
    15
100
AcDbSpline
210
0.0
220
0.0
230
1.0
 70
     8
 71
     3
 72
     8
 73
     4
 74
     0
 42
0.000000001
 43
0.00000001
 40
0.1379310344827586
 40
0.1379310344827586
 40
0.1379310344827586
 40
0.1379310344827586
 40
0.1724137931034483
 40
0.1724137931034483
 40
0.1724137931034483
 40
0.1724137931034483
 10
2.607353297181816
 20
451.1744379716558
 30
0.0
 10
2.725080432420611
 20
450.8824911280622
 30
0.0
 10
2.940671575477108
 20
450.656254703562
 30
0.0
 10
3.257150954034175
 20
450.4988255073024
 30
0.0
  0
SPLINE
  5
195
330
1F
100
AcDbEntity
  8
0
  6
Continuous
 62
     7
370
    15
100
AcDbSpline
210
0.0
220
0.0
230
1.0
 70
     8
 71
     3
 72
     8
 73
     4
 74
     0
 42
0.000000001
 43
0.00000001
 40
0.103448275862069
 40
0.103448275862069
 40
0.103448275862069
 40
0.103448275862069
 40
0.1379310344827586
 40
0.1379310344827586
 40
0.1379310344827586
 40
0.1379310344827586
 10
3.257150954034175
 20
450.4988255073024
 30
0.0
 10
3.697526892303085
 20
450.2802343303845
 30
0.0
 10
4.273944688658268
 20
450.1717008473017
 30
0.0
 10
4.986452730742623
 20
450.1717008473017
 30
0.0
  0
SPLINE
  5
196
330
1F
100
AcDbEntity
  8
0
  6
Continuous
 62
     7
370
    15
100
AcDbSpline
210
0.0
220
0.0
230
1.0
 70
     8
 71
     3
 72
     8
 73
     4
 74
     0
 42
0.000000001
 43
0.00000001
 40
0.0689655172413793
 40
0.0689655172413793
 40
0.0689655172413793
 40
0.0689655172413793
 40
0.103448275862069
 40
0.103448275862069
 40
0.103448275862069
 40
0.103448275862069
 10
4.986452730742623
 20
450.1717008473017
 30
0.0
 10
6.053690583117
 20
450.1717008473017
 30
0.0
 10
6.779964909613784
 20
450.3964130610497
 30
0.0
 10
7.165251516411525
 20
450.8473375054766
 30
0.0
  0
SPLINE
  5
197
330
1F
100
AcDbEntity
  8
0
  6
Continuous
 62
     7
370
    15
100
AcDbSpline
210
0.0
220
0.0
230
1.0
 70
     8
 71
     3
 72
     8
 73
     4
 74
     0
 42
0.000000001
 43
0.00000001
 40
0.0344827586206897
 40
0.0344827586206897
 40
0.0344827586206897
 40
0.0344827586206897
 40
0.0689655172413793
 40
0.0689655172413793
 40
0.0689655172413793
 40
0.0689655172413793
 10
7.165251516411525
 20
450.8473375054766
 30
0.0
 10
7.403778402214906
 20
451.1316391014879
 30
0.0
 10
7.523029748205868
 20
451.576466702906
 30
0.0
 10
7.523029748205864
 20
452.181771922088
 30
0.0
  0
SPLINE
  5
199
330
1F
100
AcDbEntity
  8
0
  6
Continuous
 62
     7
370
    15
100
AcDbSpline
210
0.0
220
0.0
230
1.0
 70
     8
 71
     3
 72
     8
 73
     4
 74
     0
 42
0.000000001
 43
0.00000001
 40
0.9655172413793099
 40
0.9655172413793099
 40
0.9655172413793099
 40
0.9655172413793099
 40
1.0
 40
1.0
 40
1.0
 40
1.0
 10
7.523029748205847
 20
454.8368986647197
 30
0.0
 10
7.523029748205845
 20
454.9301416526379
 30
0.0
 10
7.544465474022028
 20
455.0004488978094
 30
0.0
 10
7.58574013343785
 20
455.0493688048075
 30
0.0
  0
SPLINE
  5
19A
330
1F
100
AcDbEntity
  8
0
  6
Continuous
 62
     7
370
    15
100
AcDbSpline
210
0.0
220
0.0
230
1.0
 70
     8
 71
     3
 72
     8
 73
     4
 74
     0
 42
0.000000001
 43
0.00000001
 40
0.9310344827586203
 40
0.9310344827586203
 40
0.9310344827586203
 40
0.9310344827586203
 40
0.9655172413793099
 40
0.9655172413793099
 40
0.9655172413793099
 40
0.9655172413793099
 10
7.58574013343785
 20
455.0493688048075
 30
0.0
 10
7.6285631974273
 20
455.0998129225578
 30
0.0
 10
7.703467268676642
 20
455.1380149666478
 30
0.0
 10
7.810500734828804
 20
455.1685959569771
 30
0.0
  0
SPLINE
  5
19D
330
1F
100
AcDbEntity
  8
0
  6
Continuous
 62
     7
370
    15
100
AcDbSpline
210
0.0
220
0.0
230
1.0
 70
     8
 71
     3
 72
     8
 73
     4
 74
     0
 42
0.000000001
 43
0.00000001
 40
0.9024390243902444
 40
0.9024390243902444
 40
0.9024390243902444
 40
0.9024390243902444
 40
0.9268292682926834
 40
0.9268292682926834
 40
0.9268292682926834
 40
0.9268292682926834
 10
12.87298529449014
 20
454.8858185717178
 30
0.0
 10
12.46016611886754
 20
455.0768771798108
 30
0.0
 10
12.10543630857753
 20
455.2098706163928
 30
0.0
 10
11.80882005744156
 20
455.2862988983944
 30
0.0
  0
SPLINE
  5
19E
330
1F
100
AcDbEntity
  8
0
  6
Continuous
 62
     7
370
    15
100
AcDbSpline
210
0.0
220
0.0
230
1.0
 70
     8
 71
     3
 72
     8
 73
     4
 74
     0
 42
0.000000001
 43
0.00000001
 40
0.8780487804878053
 40
0.8780487804878053
 40
0.8780487804878053
 40
0.8780487804878053
 40
0.9024390243902444
 40
0.9024390243902444
 40
0.9024390243902444
 40
0.9024390243902444
 10
11.80882005744156
 20
455.2862988983944
 30
0.0
 10
11.51065540173196
 20
455.3627271803958
 30
0.0
 10
11.1911034078491
 20
455.4009292244859
 30
0.0
 10
10.84709146046718
 20
455.4009292244859
 30
0.0
  0
SPLINE
  5
19F
330
1F
100
AcDbEntity
  8
0
  6
Continuous
 62
     7
370
    15
100
AcDbSpline
210
0.0
220
0.0
230
1.0
 70
     8
 71
     3
 72
     8
 73
     4
 74
     0
 42
0.000000001
 43
0.00000001
 40
0.8536585365853663
 40
0.8536585365853663
 40
0.8536585365853663
 40
0.8536585365853663
 40
0.8780487804878053
 40
0.8780487804878053
 40
0.8780487804878053
 40
0.8780487804878053
 10
10.84709146046718
 20
455.4009292244859
 30
0.0
 10
10.21408431571013
 20
455.4009292244859
 30
0.0
 10
9.682013794096575
 20
455.2694841924775
 30
0.0
 10
9.252355718735755
 20
455.0065699346395
 30
0.0
  0
SPLINE
  5
1A0
330
1F
100
AcDbEntity
  8
0
  6
Continuous
 62
     7
370
    15
100
AcDbSpline
210
0.0
220
0.0
230
1.0
 70
     8
 71
     3
 72
     8
 73
     4
 74
     0
 42
0.000000001
 43
0.00000001
 40
0.8292682926829272
 40
0.8292682926829272
 40
0.8292682926829272
 40
0.8292682926829272
 40
0.8536585365853663
 40
0.8536585365853663
 40
0.8536585365853663
 40
0.8536585365853663
 10
9.252355718735755
 20
455.0065699346395
 30
0.0
 10
8.779898773206948
 20
454.7176715125503
 30
0.0
 10
8.544420308907899
 20
454.2973038646311
 30
0.0
 10
8.544420308907902
 20
453.7485638000297
 30
0.0
  0
SPLINE
  5
1A1
330
1F
100
AcDbEntity
  8
0
  6
Continuous
 62
     7
370
    15
100
AcDbSpline
210
0.0
220
0.0
230
1.0
 70
     8
 71
     3
 72
     8
 73
     4
 74
     0
 42
0.000000001
 43
0.00000001
 40
0.8048780487804882
 40
0.8048780487804882
 40
0.8048780487804882
 40
0.8048780487804882
 40
0.8292682926829272
 40
0.8292682926829272
 40
0.8292682926829272
 40
0.8292682926829272
 10
8.544420308907902
 20
453.7485638000297
 30
0.0
 10
8.544420308907904
 20
453.5039884588605
 30
0.0
 10
8.597937041983988
 20
453.2777520343603
 30
0.0
 10
8.704970508136153
 20
453.0729271418548
 30
0.0
  0
SPLINE
  5
1A2
330
1F
100
AcDbEntity
  8
0
  6
Continuous
 62
     7
370
    15
100
AcDbSpline
210
0.0
220
0.0
230
1.0
 70
     8
 71
     3
 72
     8
 73
     4
 74
     0
 42
0.000000001
 43
0.00000001
 40
0.7804878048780491
 40
0.7804878048780491
 40
0.7804878048780491
 40
0.7804878048780491
 40
0.8048780487804882
 40
0.8048780487804882
 40
0.8048780487804882
 40
0.8048780487804882
 10
8.704970508136153
 20
453.0729271418548
 30
0.0
 10
8.813552378861948
 20
452.8665780385972
 30
0.0
 10
8.961836310608469
 20
452.7030036116861
 30
0.0
 10
9.152967500165905
 20
452.5837764595166
 30
0.0
  0
SPLINE
  5
1A3
330
1F
100
AcDbEntity
  8
0
  6
Continuous
 62
     7
370
    15
100
AcDbSpline
210
0.0
220
0.0
230
1.0
 70
     8
 71
     3
 72
     8
 73
     4
 74
     0
 42
0.000000001
 43
0.00000001
 40
0.7560975609756101
 40
0.7560975609756101
 40
0.7560975609756101
 40
0.7560975609756101
 40
0.7804878048780491
 40
0.7804878048780491
 40
0.7804878048780491
 40
0.7804878048780491
 10
9.152967500165905
 20
452.5837764595166
 30
0.0
 10
9.302799836486061
 20
452.4920818761719
 30
0.0
 10
9.477116320126731
 20
452.4217504371791
 30
0.0
 10
9.677392774197166
 20
452.3743789347547
 30
0.0
  0
SPLINE
  5
1A4
330
1F
100
AcDbEntity
  8
0
  6
Continuous
 62
     7
370
    15
100
AcDbSpline
210
0.0
220
0.0
230
1.0
 70
     8
 71
     3
 72
     8
 73
     4
 74
     0
 42
0.000000001
 43
0.00000001
 40
0.731707317073171
 40
0.731707317073171
 40
0.731707317073171
 40
0.731707317073171
 40
0.7560975609756101
 40
0.7560975609756101
 40
0.7560975609756101
 40
0.7560975609756101
 10
9.677392774197166
 20
452.3743789347547
 30
0.0
 10
9.87771761591053
 20
452.3254590277564
 30
0.0
 10
10.1666886194642
 20
452.2872569836665
 30
0.0
 10
10.54587838325327
 20
452.2582002040895
 30
0.0
  0
SPLINE
  5
1A6
330
1F
100
AcDbEntity
  8
0
  6
Continuous
 62
     7
370
    15
100
AcDbSpline
210
0.0
220
0.0
230
1.0
 70
     8
 71
     3
 72
     8
 73
     4
 74
     0
 42
0.000000001
 43
0.00000001
 40
0.682926829268293
 40
0.682926829268293
 40
0.682926829268293
 40
0.682926829268293
 40
0.707317073170732
 40
0.707317073170732
 40
0.707317073170732
 40
0.707317073170732
 10
11.24919277318171
 20
452.1985866280047
 30
0.0
 10
11.62228569396211
 20
452.1664814269233
 30
0.0
 10
11.88069990100806
 20
452.1267551720811
 30
0.0
 10
12.02441120049808
 20
452.0778352650831
 30
0.0
  0
SPLINE
  5
1A7
330
1F
100
AcDbEntity
  8
0
  6
Continuous
 62
     7
370
    15
100
AcDbSpline
210
0.0
220
0.0
230
1.0
 70
     8
 71
     3
 72
     8
 73
     4
 74
     0
 42
0.000000001
 43
0.00000001
 40
0.6585365853658539
 40
0.6585365853658539
 40
0.6585365853658539
 40
0.6585365853658539
 40
0.682926829268293
 40
0.682926829268293
 40
0.682926829268293
 40
0.682926829268293
 10
12.02441120049808
 20
452.0778352650831
 30
0.0
 10
12.24000234355457
 20
452.0075280199115
 30
0.0
 10
12.34703580970674
 20
451.8806556201598
 30
0.0
 10
12.34703580970674
 20
451.6987422765799
 30
0.0
  0
SPLINE
  5
1A8
330
1F
100
AcDbEntity
  8
0
  6
Continuous
 62
     7
370
    15
100
AcDbSpline
210
0.0
220
0.0
230
1.0
 70
     8
 71
     3
 72
     8
 73
     4
 74
     0
 42
0.000000001
 43
0.00000001
 40
0.6341463414634149
 40
0.6341463414634149
 40
0.6341463414634149
 40
0.6341463414634149
 40
0.6585365853658539
 40
0.6585365853658539
 40
0.6585365853658539
 40
0.6585365853658539
 10
12.34703580970674
 20
451.6987422765799
 30
0.0
 10
12.34703580970674
 20
451.4725300459012
 30
0.0
 10
12.19105824273499
 20
451.3074314082377
 30
0.0
 10
11.88069990100806
 20
451.2065431727372
 30
0.0
  0
SPLINE
  5
1A9
330
1F
100
AcDbEntity
  8
0
  6
Continuous
 62
     7
370
    15
100
AcDbSpline
210
0.0
220
0.0
230
1.0
 70
     8
 71
     3
 72
     8
 73
     4
 74
     0
 42
0.000000001
 43
0.00000001
 40
0.6097560975609758
 40
0.6097560975609758
 40
0.6097560975609758
 40
0.6097560975609758
 40
0.6341463414634149
 40
0.6341463414634149
 40
0.6341463414634149
 40
0.6341463414634149
 10
11.88069990100806
 20
451.2065431727372
 30
0.0
 10
11.62993094154441
 20
451.1224696431535
 30
0.0
 10
11.34708097482087
 20
451.0811949837376
 30
0.0
 10
11.03057740244235
 20
451.0811949837376
 30
0.0
  0
SPLINE
  5
1AA
330
1F
100
AcDbEntity
  8
0
  6
Continuous
 62
     7
370
    15
100
AcDbSpline
210
0.0
220
0.0
230
1.0
 70
     8
 71
     3
 72
     8
 73
     4
 74
     0
 42
0.000000001
 43
0.00000001
 40
0.5853658536585368
 40
0.5853658536585368
 40
0.5853658536585368
 40
0.5853658536585368
 40
0.6097560975609758
 40
0.6097560975609758
 40
0.6097560975609758
 40
0.6097560975609758
 10
11.03057740244235
 20
451.0811949837376
 30
0.0
 10
10.67125076607437
 20
451.0811949837376
 30
0.0
 10
10.30889990202352
 20
451.1301148907357
 30
0.0
 10
9.941903824251785
 20
451.2264304939798
 30
0.0
  0
SPLINE
  5
1AB
330
1F
100
AcDbEntity
  8
0
  6
Continuous
 62
     7
370
    15
100
AcDbSpline
210
0.0
220
0.0
230
1.0
 70
     8
 71
     3
 72
     8
 73
     4
 74
     0
 42
0.000000001
 43
0.00000001
 40
0.5609756097560977
 40
0.5609756097560977
 40
0.5609756097560977
 40
0.5609756097560977
 40
0.5853658536585368
 40
0.5853658536585368
 40
0.5853658536585368
 40
0.5853658536585368
 10
9.941903824251785
 20
451.2264304939798
 30
0.0
 10
9.573431923370807
 20
451.3242461141546
 30
0.0
 10
9.315041910146324
 20
451.4373522294939
 30
0.0
 10
9.166733784578337
 20
451.5688214553238
 30
0.0
  0
SPLINE
  5
1AC
330
1F
100
AcDbEntity
  8
0
  6
Continuous
 62
     7
370
    15
100
AcDbSpline
210
0.0
220
0.0
230
1.0
 70
     8
 71
     3
 72
     8
 73
     4
 74
     0
 42
0.000000001
 43
0.00000001
 40
0.5365853658536587
 40
0.5365853658536587
 40
0.5365853658536587
 40
0.5365853658536587
 40
0.5609756097560977
 40
0.5609756097560977
 40
0.5609756097560977
 40
0.5609756097560977
 10
9.166733784578337
 20
451.5688214553238
 30
0.0
 10
9.10709601467213
 20
451.6223139945783
 30
0.0
 10
9.076539218164395
 20
451.6880486074932
 30
0.0
 10
9.076539218164395
 20
451.7660011002469
 30
0.0
  0
SPLINE
  5
1B1
330
1F
100
AcDbEntity
  8
0
  6
Continuous
 62
     7
370
    15
100
AcDbSpline
210
0.0
220
0.0
230
1.0
 70
     8
 71
     3
 72
     8
 73
     4
 74
     0
 42
0.000000001
 43
0.00000001
 40
0.4146341463414635
 40
0.4146341463414635
 40
0.4146341463414635
 40
0.4146341463414635
 40
0.4390243902439026
 40
0.4390243902439026
 40
0.4390243902439026
 40
0.4390243902439026
 10
8.561259208646147
 20
450.5752537893041
 30
0.0
 10
8.611703326396436
 20
450.6470852452276
 30
0.0
 10
8.668268480976852
 20
450.6822630616347
 30
0.0
 10
8.72790625088306
 20
450.6822630616347
 30
0.0
  0
SPLINE
  5
1B2
330
1F
100
AcDbEntity
  8
0
  6
Continuous
 62
     7
370
    15
100
AcDbSpline
210
0.0
220
0.0
230
1.0
 70
     8
 71
     3
 72
     8
 73
     4
 74
     0
 42
0.000000001
 43
0.00000001
 40
0.3902439024390245
 40
0.3902439024390245
 40
0.3902439024390245
 40
0.3902439024390245
 40
0.4146341463414635
 40
0.4146341463414635
 40
0.4146341463414635
 40
0.4146341463414635
 10
8.72790625088306
 20
450.6822630616347
 30
0.0
 10
8.760011451964417
 20
450.6822630616347
 30
0.0
 10
8.80128611138024
 20
450.6715451987267
 30
0.0
 10
8.848706001447654
 20
450.6516820713055
 30
0.0
  0
SPLINE
  5
1B3
330
1F
100
AcDbEntity
  8
0
  6
Continuous
 62
     7
370
    15
100
AcDbSpline
210
0.0
220
0.0
230
1.0
 70
     8
 71
     3
 72
     8
 73
     4
 74
     0
 42
0.000000001
 43
0.00000001
 40
0.3658536585365854
 40
0.3658536585365854
 40
0.3658536585365854
 40
0.3658536585365854
 40
0.3902439024390245
 40
0.3902439024390245
 40
0.3902439024390245
 40
0.3902439024390245
 10
8.848706001447654
 20
450.6516820713055
 30
0.0
 10
9.553568795949715
 20
450.3322026588871
 30
0.0
 10
10.28289154395084
 20
450.1717008473018
 30
0.0
 10
11.03974686077682
 20
450.1717008473018
 30
0.0
  0
SPLINE
  5
1B4
330
1F
100
AcDbEntity
  8
0
  6
Continuous
 62
     7
370
    15
100
AcDbSpline
210
0.0
220
0.0
230
1.0
 70
     8
 71
     3
 72
     8
 73
     4
 74
     0
 42
0.000000001
 43
0.00000001
 40
0.3414634146341464
 40
0.3414634146341464
 40
0.3414634146341464
 40
0.3414634146341464
 40
0.3658536585365854
 40
0.3658536585365854
 40
0.3658536585365854
 40
0.3658536585365854
 10
11.03974686077682
 20
450.1717008473018
 30
0.0
 10
11.7889569300205
 20
450.1717008473018
 30
0.0
 10
12.3837136430446
 20
450.3138637422181
 30
0.0
 10
12.82254117673988
 20
450.5966411274773
 30
0.0
  0
SPLINE
  5
1B5
330
1F
100
AcDbEntity
  8
0
  6
Continuous
 62
     7
370
    15
100
AcDbSpline
210
0.0
220
0.0
230
1.0
 70
     8
 71
     3
 72
     8
 73
     4
 74
     0
 42
0.000000001
 43
0.00000001
 40
0.3170731707317073
 40
0.3170731707317073
 40
0.3170731707317073
 40
0.3170731707317073
 40
0.3414634146341464
 40
0.3414634146341464
 40
0.3414634146341464
 40
0.3414634146341464
 10
12.82254117673988
 20
450.5966411274773
 30
0.0
 10
13.28278024242989
 20
450.8931847971489
 30
0.0
 10
13.51211347607734
 20
451.295213528399
 30
0.0
 10
13.51211347607734
 20
451.8057515489105
 30
0.0
  0
SPLINE
  5
1B6
330
1F
100
AcDbEntity
  8
0
  6
Continuous
 62
     7
370
    15
100
AcDbSpline
210
0.0
220
0.0
230
1.0
 70
     8
 71
     3
 72
     8
 73
     4
 74
     0
 42
0.000000001
 43
0.00000001
 40
0.2926829268292683
 40
0.2926829268292683
 40
0.2926829268292683
 40
0.2926829268292683
 40
0.3170731707317073
 40
0.3170731707317073
 40
0.3170731707317073
 40
0.3170731707317073
 10
13.51211347607734
 20
451.8057515489105
 30
0.0
 10
13.51211347607734
 20
452.0870047234175
 30
0.0
 10
13.43873361558016
 20
452.3376769075953
 30
0.0
 10
13.29194970076435
 20
452.5623891213434
 30
0.0
  0
SPLINE
  5
1B7
330
1F
100
AcDbEntity
  8
0
  6
Continuous
 62
     7
370
    15
100
AcDbSpline
210
0.0
220
0.0
230
1.0
 70
     8
 71
     3
 72
     8
 73
     4
 74
     0
 42
0.000000001
 43
0.00000001
 40
0.2682926829268292
 40
0.2682926829268292
 40
0.2682926829268292
 40
0.2682926829268292
 40
0.2926829268292683
 40
0.2926829268292683
 40
0.2926829268292683
 40
0.2926829268292683
 10
13.29194970076435
 20
452.5623891213434
 30
0.0
 10
13.17574677627772
 20
452.7412298495975
 30
0.0
 10
13.02896286146189
 20
452.8849169552661
 30
0.0
 10
12.84854953481256
 20
452.9919020337754
 30
0.0
  0
SPLINE
  5
1B8
330
1F
100
AcDbEntity
  8
0
  6
Continuous
 62
     7
370
    15
100
AcDbSpline
210
0.0
220
0.0
230
1.0
 70
     8
 71
     3
 72
     8
 73
     4
 74
     0
 42
0.000000001
 43
0.00000001
 40
0.2439024390243902
 40
0.2439024390243902
 40
0.2439024390243902
 40
0.2439024390243902
 40
0.2682926829268292
 40
0.2682926829268292
 40
0.2682926829268292
 40
0.2682926829268292
 10
12.84854953481256
 20
452.9919020337754
 30
0.0
 10
12.5259249256039
 20
453.1829848356899
 30
0.0
 10
12.05651640157942
 20
453.3022119878594
 30
0.0
 10
11.4372755412348
 20
453.3496076841053
 30
0.0
  0
SPLINE
  5
1BA
330
1F
100
AcDbEntity
  8
0
  6
Continuous
 62
     7
370
    15
100
AcDbSpline
210
0.0
220
0.0
230
1.0
 70
     8
 71
     3
 72
     8
 73
     4
 74
     0
 42
0.000000001
 43
0.00000001
 40
0.1951219512195122
 40
0.1951219512195122
 40
0.1951219512195122
 40
0.1951219512195122
 40
0.2195121951219512
 40
0.2195121951219512
 40
0.2195121951219512
 40
0.2195121951219512
 10
10.7293643252284
 20
453.40310022336
 30
0.0
 10
10.28441575470298
 20
453.4397780566978
 30
0.0
 10
9.98472688824122
 20
453.4886979636959
 30
0.0
 10
9.828773515090935
 20
453.5498357505328
 30
0.0
  0
SPLINE
  5
1BB
330
1F
100
AcDbEntity
  8
0
  6
Continuous
 62
     7
370
    15
100
AcDbSpline
210
0.0
220
0.0
230
1.0
 70
     8
 71
     3
 72
     8
 73
     4
 74
     0
 42
0.000000001
 43
0.00000001
 40
0.1707317073170732
 40
0.1707317073170732
 40
0.1707317073170732
 40
0.1707317073170732
 40
0.1951219512195122
 40
0.1951219512195122
 40
0.1951219512195122
 40
0.1951219512195122
 10
9.828773515090935
 20
453.5498357505328
 30
0.0
 10
9.67434435269282
 20
453.6109735373697
 30
0.0
 10
9.596391859939146
 20
453.7133859836225
 30
0.0
 10
9.596391859939144
 20
453.8601457046169
 30
0.0
  0
SPLINE
  5
1BC
330
1F
100
AcDbEntity
  8
0
  6
Continuous
 62
     7
370
    15
100
AcDbSpline
210
0.0
220
0.0
230
1.0
 70
     8
 71
     3
 72
     8
 73
     4
 74
     0
 42
0.000000001
 43
0.00000001
 40
0.1463414634146341
 40
0.1463414634146341
 40
0.1463414634146341
 40
0.1463414634146341
 40
0.1707317073170732
 40
0.1707317073170732
 40
0.1707317073170732
 40
0.1707317073170732
 10
9.596391859939144
 20
453.8601457046169
 30
0.0
 10
9.596391859939144
 20
454.0817853030391
 30
0.0
 10
9.758442076098088
 20
454.2499323622067
 30
0.0
 10
10.08106668530674
 20
454.3660868990504
 30
0.0
  0
SPLINE
  5
1BD
330
1F
100
AcDbEntity
  8
0
  6
Continuous
 62
     7
370
    15
100
AcDbSpline
210
0.0
220
0.0
230
1.0
 70
     8
 71
     3
 72
     8
 73
     4
 74
     0
 42
0.000000001
 43
0.00000001
 40
0.1219512195121951
 40
0.1219512195121951
 40
0.1219512195121951
 40
0.1219512195121951
 40
0.1463414634146341
 40
0.1463414634146341
 40
0.1463414634146341
 40
0.1463414634146341
 10
10.08106668530674
 20
454.3660868990504
 30
0.0
 10
10.30430307594554
 20
454.4471120071298
 30
0.0
 10
10.56116887841785
 20
454.4868624557936
 30
0.0
 10
10.85168828654515
 20
454.4868624557936
 30
0.0
  0
SPLINE
  5
1BE
330
1F
100
AcDbEntity
  8
0
  6
Continuous
 62
     7
370
    15
100
AcDbSpline
210
0.0
220
0.0
230
1.0
 70
     8
 71
     3
 72
     8
 73
     4
 74
     0
 42
0.000000001
 43
0.00000001
 40
0.0975609756097561
 40
0.0975609756097561
 40
0.0975609756097561
 40
0.0975609756097561
 40
0.1219512195121951
 40
0.1219512195121951
 40
0.1219512195121951
 40
0.1219512195121951
 10
10.85168828654515
 20
454.4868624557936
 30
0.0
 10
11.19110340784911
 20
454.4868624557936
 30
0.0
 10
11.52749430147019
 20
454.4379425487954
 30
0.0
 10
11.85926417519185
 20
454.338578524047
 30
0.0
  0
SPLINE
  5
1BF
330
1F
100
AcDbEntity
  8
0
  6
Continuous
 62
     7
370
    15
100
AcDbSpline
210
0.0
220
0.0
230
1.0
 70
     8
 71
     3
 72
     8
 73
     4
 74
     0
 42
0.000000001
 43
0.00000001
 40
0.0731707317073171
 40
0.0731707317073171
 40
0.0731707317073171
 40
0.0731707317073171
 40
0.0975609756097561
 40
0.0975609756097561
 40
0.0975609756097561
 40
0.0975609756097561
 10
11.85926417519185
 20
454.338578524047
 30
0.0
 10
12.19105824273497
 20
454.2407629038722
 30
0.0
 10
12.44182720219862
 20
454.1154147148726
 30
0.0
 10
12.61154685976133
 20
453.9625581508696
 30
0.0
  0
SPLINE
  5
1C0
330
1F
100
AcDbEntity
  8
0
  6
Continuous
 62
     7
370
    15
100
AcDbSpline
210
0.0
220
0.0
230
1.0
 70
     8
 71
     3
 72
     8
 73
     4
 74
     0
 42
0.000000001
 43
0.00000001
 40
0.0487804878048781
 40
0.0487804878048781
 40
0.0487804878048781
 40
0.0487804878048781
 40
0.0731707317073171
 40
0.0731707317073171
 40
0.0731707317073171
 40
0.0731707317073171
 10
12.61154685976133
 20
453.9625581508696
 30
0.0
 10
12.67423305117188
 20
453.9059929962891
 30
0.0
 10
12.70633825225323
 20
453.8280405035355
 30
0.0
 10
12.70633825225323
 20
453.7302006895393
 30
0.0
  0
SPLINE
  5
1C4
330
1F
100
AcDbEntity
  8
0
  6
Continuous
 62
     7
370
    15
100
AcDbSpline
210
0.0
220
0.0
230
1.0
 70
     8
 71
     3
 72
     8
 73
     4
 74
     0
 42
0.000000001
 43
0.00000001
 40
0.9512195121951225
 40
0.9512195121951225
 40
0.9512195121951225
 40
0.9512195121951225
 40
0.9756097560975615
 40
0.9756097560975615
 40
0.9756097560975615
 40
0.9756097560975615
 10
13.31181282818542
 20
454.8995606623088
 30
0.0
 10
13.23688456311462
 20
454.8338260493938
 30
0.0
 10
13.1757467762777
 20
454.8001966375605
 30
0.0
 10
13.12835108003175
 20
454.8001966375605
 30
0.0
  0
SPLINE
  5
1C5
330
1F
100
AcDbEntity
  8
0
  6
Continuous
 62
     7
370
    15
100
AcDbSpline
210
0.0
220
0.0
230
1.0
 70
     8
 71
     3
 72
     8
 73
     4
 74
     0
 42
0.000000001
 43
0.00000001
 40
0.9268292682926834
 40
0.9268292682926834
 40
0.9268292682926834
 40
0.9268292682926834
 40
0.9512195121951225
 40
0.9512195121951225
 40
0.9512195121951225
 40
0.9512195121951225
 10
13.12835108003175
 20
454.8001966375605
 30
0.0
 10
13.07940697921217
 20
454.8001966375605
 30
0.0
 10
12.99530925580689
 20
454.8292534171374
 30
0.0
 10
12.87298529449014
 20
454.8858185717178
 30
0.0
  0
SPLINE
  5
1C8
330
1F
100
AcDbEntity
  8
0
  6
Continuous
 62
     7
370
    15
100
AcDbSpline
210
0.0
220
0.0
230
1.0
 70
     8
 71
     3
 72
     8
 73
     4
 74
     0
 42
0.000000001
 43
0.00000001
 40
0.0357142857142857
 40
0.0357142857142857
 40
0.0357142857142857
 40
0.0357142857142857
 40
0.0714285714285714
 40
0.0714285714285714
 40
0.0714285714285714
 40
0.0714285714285714
 10
-2.363244585231694
 20
450.5035513153063
 30
0.0
 10
-2.40454135003636
 20
450.5524687484845
 30
0.0
 10
-2.425927606678027
 20
450.624296571979
 30
0.0
 10
-2.425927606678027
 20
450.7160107110383
 30
0.0
  0
SPLINE
  5
1CB
330
1F
100
AcDbEntity
  8
0
  6
Continuous
 62
     7
370
    15
100
AcDbSpline
210
0.0
220
0.0
230
1.0
 70
     8
 71
     3
 72
     8
 73
     4
 74
     0
 42
0.000000001
 43
0.00000001
 40
0.1428571428571428
 40
0.1428571428571428
 40
0.1428571428571428
 40
0.1428571428571428
 40
0.2857142857142857
 40
0.2857142857142857
 40
0.2857142857142857
 40
0.2857142857142857
 10
-0.6172476150452865
 20
453.2471952378525
 30
0.0
 10
-0.3420428959040453
 20
453.2471952378525
 30
0.0
 10
-0.1386938265078119
 20
453.2777520343602
 30
0.0
 10
-0.0087246176087571
 20
453.337365610445
 30
0.0
  0
SPLINE
  5
1CD
330
1F
100
AcDbEntity
  8
0
  6
Continuous
 62
     7
370
    15
100
AcDbSpline
210
0.0
220
0.0
230
1.0
 70
     8
 71
     3
 72
     8
 73
     4
 74
     0
 42
0.000000001
 43
0.00000001
 40
0.1428571428571428
 40
0.1428571428571428
 40
0.1428571428571428
 40
0.1428571428571428
 40
0.2857142857142857
 40
0.2857142857142857
 40
0.2857142857142857
 40
0.2857142857142857
 10
-0.6172164015865218
 20
453.2242750802141
 30
0.0
 10
-0.3420255992121395
 20
453.2242750802141
 30
0.0
 10
-0.1386868129302312
 20
453.2548303315019
 30
0.0
 10
-0.0087241764154899
 20
453.3144408930008
 30
0.0
  0
SPLINE
  5
1CF
330
1F
100
AcDbEntity
  8
0
  6
Continuous
 62
     7
370
    15
100
AcDbSpline
210
0.0
220
0.0
230
1.0
 70
     8
 71
     3
 72
     8
 73
     4
 74
     0
 42
0.000000001
 43
0.00000001
 40
0.2857142857142857
 40
0.2857142857142857
 40
0.2857142857142857
 40
0.2857142857142857
 40
0.4285714285714285
 40
0.4285714285714285
 40
0.4285714285714285
 40
0.4285714285714285
 10
-0.0087246176087571
 20
453.337365610445
 30
0.0
 10
0.1762855351185479
 20
453.4168665077722
 30
0.0
 10
0.2695527168582825
 20
453.5773441255361
 30
0.0
 10
0.2695527168582808
 20
453.8158226236965
 30
0.0
  0
SPLINE
  5
1D1
330
1F
100
AcDbEntity
  8
0
  6
Continuous
 62
     7
370
    15
100
AcDbSpline
210
0.0
220
0.0
230
1.0
 70
     8
 71
     3
 72
     8
 73
     4
 74
     0
 42
0.000000001
 43
0.00000001
 40
0.2857142857142857
 40
0.2857142857142857
 40
0.2857142857142857
 40
0.2857142857142857
 40
0.4285714285714285
 40
0.4285714285714285
 40
0.4285714285714285
 40
0.4285714285714285
 10
-0.0087241764154899
 20
453.3144408930008
 30
0.0
 10
0.1762766205741299
 20
453.3939377700648
 30
0.0
 10
0.2695390859062828
 20
453.5544072726713
 30
0.0
 10
0.2695390859062812
 20
453.792873711265
 30
0.0
  0
SPLINE
  5
1D7
330
1F
100
AcDbEntity
  8
0
  6
Continuous
 62
     7
370
    15
100
AcDbSpline
210
0.0
220
0.0
230
1.0
 70
     8
 71
     3
 72
     8
 73
     4
 74
     0
 42
0.000000001
 43
0.00000001
 40
0.5714285714285714
 40
0.5714285714285714
 40
0.5714285714285714
 40
0.5714285714285714
 40
0.7142857142857142
 40
0.7142857142857142
 40
0.7142857142857142
 40
0.7142857142857142
 10
0.0753731057965094
 20
454.2591018205412
 30
0.0
 10
-0.0545961031025491
 20
454.3431753501249
 30
0.0
 10
-0.2854535475021712
 20
454.3844258157193
 30
0.0
 10
-0.6172476150452945
 20
454.3844258157193
 30
0.0
  0
SPLINE
  5
1D8
330
1F
100
AcDbEntity
  8
0
  6
Continuous
 62
     7
370
    15
100
AcDbSpline
210
0.0
220
0.0
230
1.0
 70
     8
 71
     3
 72
     8
 73
     4
 74
     0
 42
0.000000001
 43
0.00000001
 40
0.4285714285714285
 40
0.4285714285714285
 40
0.4285714285714285
 40
0.4285714285714285
 40
0.5714285714285714
 40
0.5714285714285714
 40
0.5714285714285714
 40
0.5714285714285714
 10
0.2695527168582808
 20
453.8158226236965
 30
0.0
 10
0.2695527168582793
 20
454.0282927637843
 30
0.0
 10
0.2053423146955652
 20
454.1750282909573
 30
0.0
 10
0.0753731057965094
 20
454.2591018205412
 30
0.0
  0
SPLINE
  5
1E1
330
1F
100
AcDbEntity
  8
0
  6
Continuous
 62
     7
370
    15
100
AcDbSpline
210
0.0
220
0.0
230
1.0
 70
     8
 71
     3
 72
    12
 73
     8
 74
     0
 42
0.000000001
 43
0.00000001
 40
0.0
 40
0.0
 40
0.0
 40
0.0
 40
0.0522808987459346
 40
0.2645943405355729
 40
0.4861614238263996
 40
0.7257950261770578
 40
1.0
 40
1.0
 40
1.0
 40
1.0
 10
16.35375404175557
 20
459.0929572526585
 30
0.0
 10
16.35354924888415
 20
459.0939941536243
 30
0.0
 10
16.35251278937296
 20
459.0992419235336
 30
0.0
 10
16.34598099234333
 20
459.1072543754728
 30
0.0
 10
16.33493036003511
 20
459.1151884797169
 30
0.0
 10
16.32003399442494
 20
459.1189320849492
 30
0.0
 10
16.30978809476543
 20
459.1169067150377
 30
0.0
 10
16.30432046975983
 20
459.1158258960232
 30
0.0
  0
SPLINE
  5
1E3
330
1F
100
AcDbEntity
  8
0
  6
Continuous
 62
     7
370
    15
100
AcDbSpline
210
0.0
220
0.0
230
1.0
 70
     8
 71
     3
 72
     8
 73
     4
 74
     0
 42
0.000000001
 43
0.00000001
 40
0.6
 40
0.6
 40
0.6
 40
0.6
 40
0.7
 40
0.7
 40
0.7
 40
0.7
 10
16.30432046975983
 20
459.1158258960232
 30
0.0
 10
11.71038803346343
 20
457.8805760341829
 30
0.0
 10
10.25677578197641
 20
457.8206509689098
 30
0.0
 10
7.906343922224026
 20
458.0434889891885
 30
0.0
  0
SPLINE
  5
1E5
330
1F
100
AcDbEntity
  8
0
  6
Continuous
 62
     7
370
    15
100
AcDbSpline
210
0.0
220
0.0
230
1.0
 70
     8
 71
     3
 72
     8
 73
     4
 74
     0
 42
0.000000001
 43
0.00000001
 40
0.7
 40
0.7
 40
0.7
 40
0.7
 40
0.7999999999999999
 40
0.7999999999999999
 40
0.7999999999999999
 40
0.7999999999999999
 10
7.906343922224026
 20
458.0434889891885
 30
0.0
 10
5.696277516131091
 20
458.2524404582089
 30
0.0
 10
4.190409252940448
 20
458.8454010354568
 30
0.0
 10
1.632840369018441
 20
459.3172534670621
 30
0.0
  0
SPLINE
  5
1E7
330
1F
100
AcDbEntity
  8
0
  6
Continuous
 62
     7
370
    15
100
AcDbSpline
210
0.0
220
0.0
230
1.0
 70
     8
 71
     3
 72
     8
 73
     4
 74
     0
 42
0.000000001
 43
0.00000001
 40
0.7999999999999999
 40
0.7999999999999999
 40
0.7999999999999999
 40
0.7999999999999999
 40
0.8999999999999999
 40
0.8999999999999999
 40
0.8999999999999999
 40
0.8999999999999999
 10
1.632840369018441
 20
459.3172534670621
 30
0.0
 10
-0.469859287101964
 20
459.7056414355296
 30
0.0
 10
-2.703973135617765
 20
459.9150283713142
 30
0.0
 10
-5.489097596430618
 20
459.6407085024683
 30
0.0
  0
SPLINE
  5
1E9
330
1F
100
AcDbEntity
  8
0
  6
Continuous
 62
     7
370
    15
100
AcDbSpline
210
0.0
220
0.0
230
1.0
 70
     8
 71
     3
 72
     8
 73
     4
 74
     0
 42
0.000000001
 43
0.00000001
 40
0.8999999999999999
 40
0.8999999999999999
 40
0.8999999999999999
 40
0.8999999999999999
 40
1.0
 40
1.0
 40
1.0
 40
1.0
 10
-5.489097596430618
 20
459.6407085024683
 30
0.0
 10
-8.737800620329002
 20
459.226555417119
 30
0.0
 10
-11.00597764684419
 20
458.3047932403043
 30
0.0
 10
-12.95967509181524
 20
456.4353344216074
 30
0.0
  0
SPLINE
  5
1EB
330
1F
100
AcDbEntity
  8
0
  6
Continuous
 62
     7
370
    15
100
AcDbSpline
210
0.0
220
0.0
230
1.0
 70
     8
 71
     3
 72
     9
 73
     5
 74
     0
 42
0.000000001
 43
0.00000001
 40
0.0
 40
0.0
 40
0.0
 40
0.0
 40
0.6130954962770865
 40
0.9999999999999999
 40
0.9999999999999999
 40
0.9999999999999999
 40
0.9999999999999999
 10
-12.95967509181524
 20
456.4353344216074
 30
0.0
 10
-12.96552622130673
 20
456.428917390961
 30
0.0
 10
-12.97506980713801
 20
456.4184507822756
 30
0.0
 10
-12.97821041504834
 20
456.4047796044694
 30
0.0
 10
-12.97942553039328
 20
456.399490164205
 30
0.0
  0
SPLINE
  5
1EC
330
1F
100
AcDbEntity
  8
0
  6
Continuous
 62
     7
370
    15
100
AcDbSpline
210
0.0
220
0.0
230
1.0
 70
     8
 71
     3
 72
    12
 73
     8
 74
     0
 42
0.000000001
 43
0.00000001
 40
0.0
 40
0.0
 40
0.0
 40
0.0
 40
0.1009916975360591
 40
0.3478286828659823
 40
0.532091588843473
 40
0.7450274254907789
 40
1.0
 40
1.0
 40
1.0
 40
1.0
 10
11.86742604976144
 20
456.7232009445221
 30
0.0
 10
11.86695730464694
 20
456.725015028444
 30
0.0
 10
11.86534288485055
 20
456.7312629719539
 30
0.0
 10
11.85775109985804
 20
456.7384931655777
 30
0.0
 10
11.84710672132399
 20
456.7437205473593
 30
0.0
 10
11.8350576363876
 20
456.7458123960537
 30
0.0
 10
11.82647292617952
 20
456.7448478718006
 30
0.0
 10
11.82179494730379
 20
456.7443222834033
 30
0.0
  0
SPLINE
  5
1EE
330
1F
100
AcDbEntity
  8
0
  6
Continuous
 62
     7
370
    15
100
AcDbSpline
210
0.0
220
0.0
230
1.0
 70
     8
 71
     3
 72
     8
 73
     4
 74
     0
 42
0.000000001
 43
0.00000001
 40
0.6
 40
0.6
 40
0.6
 40
0.6
 40
0.7
 40
0.7
 40
0.7
 40
0.7
 10
11.82179494730379
 20
456.7443222834033
 30
0.0
 10
8.540335145698595
 20
456.4380439925848
 30
0.0
 10
7.841677107740806
 20
456.5196940108717
 30
0.0
 10
5.638868481051153
 20
456.9134769286956
 30
0.0
  0
SPLINE
  5
1F0
330
1F
100
AcDbEntity
  8
0
  6
Continuous
 62
     7
370
    15
100
AcDbSpline
210
0.0
220
0.0
230
1.0
 70
     8
 71
     3
 72
     8
 73
     4
 74
     0
 42
0.000000001
 43
0.00000001
 40
0.7
 40
0.7
 40
0.7
 40
0.7
 40
0.7999999999999999
 40
0.7999999999999999
 40
0.7999999999999999
 40
0.7999999999999999
 10
5.638868481051153
 20
456.9134769286956
 30
0.0
 10
3.867873536258677
 20
457.2298919180806
 30
0.0
 10
2.298015851329109
 20
457.5717575205731
 30
0.0
 10
0.781938311777851
 20
457.850238516277
 30
0.0
  0
SPLINE
  5
1F2
330
1F
100
AcDbEntity
  8
0
  6
Continuous
 62
     7
370
    15
100
AcDbSpline
210
0.0
220
0.0
230
1.0
 70
     8
 71
     3
 72
     8
 73
     4
 74
     0
 42
0.000000001
 43
0.00000001
 40
0.7999999999999999
 40
0.7999999999999999
 40
0.7999999999999999
 40
0.7999999999999999
 40
0.8999999999999999
 40
0.8999999999999999
 40
0.8999999999999999
 40
0.8999999999999999
 10
0.781938311777851
 20
457.850238516277
 30
0.0
 10
-1.107237474298044
 20
458.1972087569498
 30
0.0
 10
-2.886361132022195
 20
458.4505778359184
 30
0.0
 10
-4.620462364847993
 20
458.3648876537637
 30
0.0
  0
SPLINE
  5
1F4
330
1F
100
AcDbEntity
  8
0
  6
Continuous
 62
     7
370
    15
100
AcDbSpline
210
0.0
220
0.0
230
1.0
 70
     8
 71
     3
 72
     8
 73
     4
 74
     0
 42
0.000000001
 43
0.00000001
 40
0.8999999999999999
 40
0.8999999999999999
 40
0.8999999999999999
 40
0.8999999999999999
 40
1.0
 40
1.0
 40
1.0
 40
1.0
 10
-4.620462364847993
 20
458.3648876537637
 30
0.0
 10
-6.365885733542909
 20
458.2785200788646
 30
0.0
 10
-8.420514697415584
 20
457.9284531856463
 30
0.0
 10
-10.96801946056502
 20
456.2709699107211
 30
0.0
  0
SPLINE
  5
1F6
330
1F
100
AcDbEntity
  8
0
  6
Continuous
 62
     7
370
    15
100
AcDbSpline
210
0.0
220
0.0
230
1.0
 70
     8
 71
     3
 72
     9
 73
     5
 74
     0
 42
0.000000001
 43
0.00000001
 40
0.0
 40
0.0
 40
0.0
 40
0.0
 40
0.5957437395898271
 40
1.0
 40
1.0
 40
1.0
 40
1.0
 10
-10.96801946056502
 20
456.2709699107211
 30
0.0
 10
-10.97291090348414
 20
456.2672534737582
 30
0.0
 10
-10.98112155278527
 20
456.261015159
 30
0.0
 10
-10.98503989955064
 20
456.2515733958188
 30
0.0
 10
-10.986623915761
 20
456.2477565039436
 30
0.0
  0
SPLINE
  5
1F7
330
1F
100
AcDbEntity
  8
0
  6
Continuous
 62
     7
370
    15
100
AcDbSpline
210
0.0
220
0.0
230
1.0
 70
     8
 71
     3
 72
     8
 73
     4
 74
     0
 42
0.000000001
 43
0.00000001
 40
0.8536585365853663
 40
0.8536585365853663
 40
0.8536585365853663
 40
0.8536585365853663
 40
0.8780487804878053
 40
0.8780487804878053
 40
0.8780487804878053
 40
0.8780487804878053
 10
10.84654293628699
 20
455.3779001551477
 30
0.0
 10
10.21356780192889
 20
455.3779001551477
 30
0.0
 10
9.681524186472414
 20
455.2464617701542
 30
0.0
 10
9.251887838396224
 20
454.9835608075694
 30
0.0
  0
SPLINE
  5
1FA
330
1F
100
AcDbEntity
  8
0
  6
Continuous
 62
     7
370
    15
100
AcDbSpline
210
0.0
220
0.0
230
1.0
 70
     8
 71
     3
 72
     8
 73
     4
 74
     0
 42
0.000000001
 43
0.00000001
 40
0.9230769230769236
 40
0.9230769230769236
 40
0.9230769230769236
 40
0.9230769230769236
 40
0.9487179487179492
 40
0.9487179487179492
 40
0.9487179487179492
 40
0.9487179487179492
 10
-16.19531411278768
 20
451.3044714650564
 30
0.0
 10
-16.52404313456027
 20
451.226522914265
 30
0.0
 10
-16.85734455735691
 20
451.1883228020058
 30
0.0
 10
-17.19371844010096
 20
451.1883228020058
 30
0.0
  0
SPLINE
  5
1FD
330
1F
100
AcDbEntity
  8
0
  6
Continuous
 62
     7
370
    15
100
AcDbSpline
210
0.0
220
0.0
230
1.0
 70
     8
 71
     3
 72
     8
 73
     4
 74
     0
 42
0.000000001
 43
0.00000001
 40
0.8974358974358979
 40
0.8974358974358979
 40
0.8974358974358979
 40
0.8974358974358979
 40
0.9230769230769236
 40
0.9230769230769236
 40
0.9230769230769236
 40
0.9230769230769236
 10
-17.19371844010096
 20
451.1883228020058
 30
0.0
 10
-17.886304135958
 20
451.1883228020058
 30
0.0
 10
-18.44435479427623
 20
451.370202753852
 30
0.0
 10
-18.86787041505566
 20
451.7339868501425
 30
0.0
  0
SPLINE
  5
1FF
330
1F
100
AcDbEntity
  8
0
  6
Continuous
 62
     7
370
    15
100
AcDbSpline
210
0.0
220
0.0
230
1.0
 70
     8
 71
     3
 72
     8
 73
     4
 74
     0
 42
0.000000001
 43
0.00000001
 40
0.8717948717948723
 40
0.8717948717948723
 40
0.8717948717948723
 40
0.8717948717948723
 40
0.8974358974358979
 40
0.8974358974358979
 40
0.8974358974358979
 40
0.8974358974358979
 10
-18.86787041505566
 20
451.7339868501425
 30
0.0
 10
-19.33111028176904
 20
452.1313986576681
 30
0.0
 10
-19.56200443718541
 20
452.6526039892156
 30
0.0
 10
-19.56200443718541
 20
453.2961029037084
 30
0.0
  0
SPLINE
  5
202
330
1F
100
AcDbEntity
  8
0
  6
Continuous
 62
     7
370
    15
100
AcDbSpline
210
0.0
220
0.0
230
1.0
 70
     8
 71
     3
 72
     8
 73
     4
 74
     0
 42
0.000000001
 43
0.00000001
 40
0.6153846153846156
 40
0.6153846153846156
 40
0.6153846153846156
 40
0.6153846153846156
 40
0.6410256410256413
 40
0.6410256410256413
 40
0.6410256410256413
 40
0.6410256410256413
 10
-14.53797599345061
 20
456.0366887915832
 30
0.0
 10
-14.62206946413662
 20
455.9679092354382
 30
0.0
 10
-14.6954698065018
 20
455.934281524203
 30
0.0
 10
-14.75815282794813
 20
455.934281524203
 30
0.0
  0
SPLINE
  5
204
330
1F
100
AcDbEntity
  8
0
  6
Continuous
 62
     7
370
    15
100
AcDbSpline
210
0.0
220
0.0
230
1.0
 70
     8
 71
     3
 72
     8
 73
     4
 74
     0
 42
0.000000001
 43
0.00000001
 40
0.58974358974359
 40
0.58974358974359
 40
0.58974358974359
 40
0.58974358974359
 40
0.6153846153846156
 40
0.6153846153846156
 40
0.6153846153846156
 40
0.6153846153846156
 10
-14.75815282794813
 20
455.934281524203
 30
0.0
 10
-14.84377043230883
 20
455.934281524203
 30
0.0
 10
-14.98899859816847
 20
455.974005770137
 30
0.0
 10
-15.19236157704839
 20
456.0550267808756
 30
0.0
  0
SPLINE
  5
206
330
1F
100
AcDbEntity
  8
0
  6
Continuous
 62
     7
370
    15
100
AcDbSpline
210
0.0
220
0.0
230
1.0
 70
     8
 71
     3
 72
     8
 73
     4
 74
     0
 42
0.000000001
 43
0.00000001
 40
0.5641025641025643
 40
0.5641025641025643
 40
0.5641025641025643
 40
0.5641025641025643
 40
0.58974358974359
 40
0.58974358974359
 40
0.58974358974359
 40
0.58974358974359
 10
-15.19236157704839
 20
456.0550267808756
 30
0.0
 10
-15.58527356134398
 20
456.206351481434
 30
0.0
 10
-15.93693716603093
 20
456.3148794761109
 30
0.0
 10
-16.24577987223853
 20
456.3790624386339
 30
0.0
  0
SPLINE
  5
208
330
1F
100
AcDbEntity
  8
0
  6
Continuous
 62
     7
370
    15
100
AcDbSpline
210
0.0
220
0.0
230
1.0
 70
     8
 71
     3
 72
     8
 73
     4
 74
     0
 42
0.000000001
 43
0.00000001
 40
0.5384615384615387
 40
0.5384615384615387
 40
0.5384615384615387
 40
0.5384615384615387
 40
0.5641025641025643
 40
0.5641025641025643
 40
0.5641025641025643
 40
0.5641025641025643
 10
-16.24577987223853
 20
456.3790624386339
 30
0.0
 10
-16.55614671212081
 20
456.4432695937549
 30
0.0
 10
-16.88485154129539
 20
456.4753489787175
 30
0.0
 10
-17.23344268603494
 20
456.4753489787175
 30
0.0
  0
SPLINE
  5
20A
330
1F
100
AcDbEntity
  8
0
  6
Continuous
 62
     7
370
    15
100
AcDbSpline
210
0.0
220
0.0
230
1.0
 70
     8
 71
     3
 72
     8
 73
     4
 74
     0
 42
0.000000001
 43
0.00000001
 40
0.512820512820513
 40
0.512820512820513
 40
0.512820512820513
 40
0.512820512820513
 40
0.5384615384615387
 40
0.5384615384615387
 40
0.5384615384615387
 40
0.5384615384615387
 10
-17.23344268603494
 20
456.4753489787175
 30
0.0
 10
-18.33271830089673
 20
456.4664476109499
 30
0.0
 10
-19.21112069037616
 20
456.1842075167227
 30
0.0
 10
-19.87018608353438
 20
455.630116246695
 30
0.0
  0
SPLINE
  5
20C
330
1F
100
AcDbEntity
  8
0
  6
Continuous
 62
     7
370
    15
100
AcDbSpline
210
0.0
220
0.0
230
1.0
 70
     8
 71
     3
 72
     8
 73
     4
 74
     0
 42
0.000000001
 43
0.00000001
 40
0.4871794871794873
 40
0.4871794871794873
 40
0.4871794871794873
 40
0.4871794871794873
 40
0.512820512820513
 40
0.512820512820513
 40
0.512820512820513
 40
0.512820512820513
 10
-19.87018608353438
 20
455.630116246695
 30
0.0
 10
-20.57056569195904
 20
455.0528485338136
 30
0.0
 10
-20.92141086364196
 20
454.2743265095892
 30
0.0
 10
-20.92424124598513
 20
453.2961029037083
 30
0.0
  0
SPLINE
  5
20F
330
1F
100
AcDbEntity
  8
0
  6
Continuous
 62
     7
370
    15
100
AcDbSpline
210
0.0
220
0.0
230
1.0
 70
     8
 71
     3
 72
     8
 73
     4
 74
     0
 42
0.000000001
 43
0.00000001
 40
0.358974358974359
 40
0.358974358974359
 40
0.358974358974359
 40
0.358974358974359
 40
0.3846153846153847
 40
0.3846153846153847
 40
0.3846153846153847
 40
0.3846153846153847
 10
-13.9523941585959
 20
451.2540540908014
 30
0.0
 10
-14.06249467214367
 20
451.2846093420893
 30
0.0
 10
-14.13894328185822
 20
451.3228336469466
 30
0.0
 10
-14.18021585406487
 20
451.370202753852
 30
0.0
  0
SPLINE
  5
211
330
1F
100
AcDbEntity
  8
0
  6
Continuous
 62
     7
370
    15
100
AcDbSpline
210
0.0
220
0.0
230
1.0
 70
     8
 71
     3
 72
    10
 73
     6
 74
     0
 42
0.000000001
 43
0.00000001
 40
0.0
 40
0.0
 40
0.0
 40
0.0
 40
0.2632669770835597
 40
0.552507128501801
 40
1.0
 40
1.0
 40
1.0
 40
1.0
 10
-14.18021585406487
 20
451.370202753852
 30
0.0
 10
-14.19095486844641
 20
451.3848359681626
 30
0.0
 10
-14.21349237795334
 20
451.415546068264
 30
0.0
 10
-14.23640258135765
 20
451.4814905878642
 30
0.0
 10
-14.23917966306954
 20
451.5321966212485
 30
0.0
 10
-14.2408664671505
 20
451.5629955508141
 30
0.0
  0
SPLINE
  5
214
330
1F
100
AcDbEntity
  8
0
  6
Continuous
 62
     7
370
    15
100
AcDbSpline
210
0.0
220
0.0
230
1.0
 70
     8
 71
     3
 72
     8
 73
     4
 74
     0
 42
0.000000001
 43
0.00000001
 40
0.1794871794871795
 40
0.1794871794871795
 40
0.1794871794871795
 40
0.1794871794871795
 40
0.2051282051282051
 40
0.2051282051282051
 40
0.2051282051282051
 40
0.2051282051282051
 10
-16.85122383006016
 20
453.3052718983546
 30
0.0
 10
-16.94448629539232
 20
453.3052718983546
 30
0.0
 10
-17.01331423673343
 20
453.3251340213216
 30
0.0
 10
-17.05915920996415
 20
453.3664065935283
 30
0.0
  0
SPLINE
  5
216
330
1F
100
AcDbEntity
  8
0
  6
Continuous
 62
     7
370
    15
100
AcDbSpline
210
0.0
220
0.0
230
1.0
 70
     8
 71
     3
 72
     8
 73
     4
 74
     0
 42
0.000000001
 43
0.00000001
 40
0.1538461538461538
 40
0.1538461538461538
 40
0.1538461538461538
 40
0.1538461538461538
 40
0.1794871794871795
 40
0.1794871794871795
 40
0.1794871794871795
 40
0.1794871794871795
 10
-17.05915920996415
 20
453.3664065935283
 30
0.0
 10
-17.10655250946757
 20
453.4061550320602
 30
0.0
 10
-17.14325268065016
 20
453.4825794491768
 30
0.0
 10
-17.17380793193797
 20
453.5926315775284
 30
0.0
  0
SPLINE
  5
21E
330
1F
100
AcDbEntity
  8
0
  6
Continuous
 62
     7
370
    15
100
AcDbSpline
210
0.0
220
0.0
230
1.0
 70
     8
 71
     3
 72
     8
 73
     4
 74
     0
 42
0.000000001
 43
0.00000001
 40
0.9487179487179492
 40
0.9487179487179492
 40
0.9487179487179492
 40
0.9487179487179492
 40
0.9743589743589749
 40
0.9743589743589749
 40
0.9743589743589749
 40
0.9743589743589749
 10
-15.34523460387946
 20
451.6224105881161
 30
0.0
 10
-15.58374942766926
 20
451.4878997431751
 30
0.0
 10
-15.8681334172878
 20
451.3824442084455
 30
0.0
 10
-16.19531411278768
 20
451.3044714650564
 30
0.0
  0
SPLINE
  5
21F
330
1F
100
AcDbEntity
  8
0
  6
Continuous
 62
     7
370
    15
100
AcDbSpline
210
0.0
220
0.0
230
1.0
 70
     8
 71
     3
 72
     8
 73
     4
 74
     0
 42
0.000000001
 43
0.00000001
 40
0.9024390243902444
 40
0.9024390243902444
 40
0.9024390243902444
 40
0.9024390243902444
 40
0.9268292682926834
 40
0.9268292682926834
 40
0.9268292682926834
 40
0.9268292682926834
 10
18.5201447141794
 20
454.8628155508968
 30
0.0
 10
18.10734641431882
 20
455.0538644973891
 30
0.0
 10
17.75263454228249
 20
455.1868512086552
 30
0.0
 10
17.45603329066843
 20
455.2632756257718
 30
0.0
  0
SPLINE
  5
229
330
1F
100
AcDbEntity
  8
0
  6
Continuous
 62
     7
370
    15
100
AcDbSpline
210
0.0
220
0.0
230
1.0
 70
     8
 71
     3
 72
     8
 73
     4
 74
     0
 42
0.000000001
 43
0.00000001
 40
0.4375
 40
0.4375
 40
0.4375
 40
0.4375
 40
0.5
 40
0.5
 40
0.5
 40
0.5
 10
-12.73695803452653
 20
450.7129624436889
 30
0.0
 10
-12.73695803452653
 20
450.6197241709547
 30
0.0
 10
-12.7583442911682
 20
450.5478721548623
 30
0.0
 10
-12.80266513072423
 20
450.4974305880095
 30
0.0
  0
SPLINE
  5
22B
330
1F
100
AcDbEntity
  8
0
  6
Continuous
 62
     7
370
    15
100
AcDbSpline
210
0.0
220
0.0
230
1.0
 70
     8
 71
     3
 72
     8
 73
     4
 74
     0
 42
0.000000001
 43
0.00000001
 40
0.375
 40
0.375
 40
0.375
 40
0.375
 40
0.4375
 40
0.4375
 40
0.4375
 40
0.4375
 10
-12.80266513072423
 20
450.4974305880095
 30
0.0
 10
-12.84548602920358
 20
450.4469890211568
 30
0.0
 10
-12.91888637156876
 20
450.4087889088975
 30
0.0
 10
-13.02436609889643
 20
450.381281924959
 30
0.0
  0
SPLINE
  5
22E
330
1F
100
AcDbEntity
  8
0
  6
Continuous
 62
     7
370
    15
100
AcDbSpline
210
0.0
220
0.0
230
1.0
 70
     8
 71
     3
 72
     8
 73
     4
 74
     0
 42
0.000000001
 43
0.00000001
 40
0.125
 40
0.125
 40
0.125
 40
0.125
 40
0.1875
 40
0.1875
 40
0.1875
 40
0.1875
 10
-11.24930679763812
 20
450.381281924959
 30
0.0
 10
-11.3563348512385
 20
450.4133855025195
 30
0.0
 10
-11.43125932727836
 20
450.4546338821281
 30
0.0
 10
-11.47405603315971
 20
450.5035513153063
 30
0.0
  0
SPLINE
  5
230
330
1F
100
AcDbEntity
  8
0
  6
Continuous
 62
     7
370
    15
100
AcDbSpline
210
0.0
220
0.0
230
1.0
 70
     8
 71
     3
 72
     9
 73
     5
 74
     0
 42
0.000000001
 43
0.00000001
 40
0.0
 40
0.0
 40
0.0
 40
0.0
 40
0.5468035018119651
 40
0.9999999999999999
 40
0.9999999999999999
 40
0.9999999999999999
 40
0.9999999999999999
 10
-11.47405603315971
 20
450.5035513153063
 30
0.0
 10
-11.49427445968726
 20
450.5372182423156
 30
0.0
 10
-11.53125013094861
 20
450.5987886728226
 30
0.0
 10
-11.53388503468453
 20
450.6702820750533
 30
0.0
 10
-11.53507916383071
 20
450.7026826345878
 30
0.0
  0
SPLINE
  5
237
330
1F
100
AcDbEntity
  8
0
  6
Continuous
 62
     7
370
    15
100
AcDbSpline
210
0.0
220
0.0
230
1.0
 70
     8
 71
     3
 72
     8
 73
     4
 74
     0
 42
0.000000001
 43
0.00000001
 40
0.4666666666666666
 40
0.4666666666666666
 40
0.4666666666666666
 40
0.4666666666666666
 40
0.5333333333333333
 40
0.5333333333333333
 40
0.5333333333333333
 40
0.5333333333333333
 10
-4.679564881788665
 20
452.7641802512422
 30
0.0
 10
-4.679564881788669
 20
453.2257992138888
 30
0.0
 10
-4.756013491503228
 20
453.6308316897878
 30
0.0
 10
-4.907338192061627
 20
453.976277796786
 30
0.0
  0
SPLINE
  5
239
330
1F
100
AcDbEntity
  8
0
  6
Continuous
 62
     7
370
    15
100
AcDbSpline
210
0.0
220
0.0
230
1.0
 70
     8
 71
     3
 72
     8
 73
     4
 74
     0
 42
0.000000001
 43
0.00000001
 40
0.4
 40
0.4
 40
0.4
 40
0.4
 40
0.4666666666666666
 40
0.4666666666666666
 40
0.4666666666666666
 40
0.4666666666666666
 10
-4.907338192061627
 20
453.976277796786
 30
0.0
 10
-5.12599089288446
 20
454.4730486043426
 30
0.0
 10
-5.482226898595479
 20
454.8276395133888
 30
0.0
 10
-5.979142861740081
 20
455.0431713690683
 30
0.0
  0
SPLINE
  5
23B
330
1F
100
AcDbEntity
  8
0
  6
Continuous
 62
     7
370
    15
100
AcDbSpline
210
0.0
220
0.0
230
1.0
 70
     8
 71
     3
 72
     8
 73
     4
 74
     0
 42
0.000000001
 43
0.00000001
 40
0.3333333333333333
 40
0.3333333333333333
 40
0.3333333333333333
 40
0.3333333333333333
 40
0.4
 40
0.4
 40
0.4
 40
0.4
 10
-5.979142861740081
 20
455.0431713690683
 30
0.0
 10
-6.330782273829021
 20
455.1944960696267
 30
0.0
 10
-6.813908456107393
 20
455.2709204867433
 30
0.0
 10
-7.425473141225813
 20
455.2709204867431
 30
0.0
  0
SPLINE
  5
244
330
1F
100
AcDbEntity
  8
0
  6
Continuous
 62
     7
370
    15
100
AcDbSpline
210
0.0
220
0.0
230
1.0
 70
     8
 71
     3
 72
     8
 73
     4
 74
     0
 42
0.000000001
 43
0.00000001
 40
0.9333333333333332
 40
0.9333333333333332
 40
0.9333333333333332
 40
0.9333333333333332
 40
1.0
 40
1.0
 40
1.0
 40
1.0
 10
-10.08121558787616
 20
450.7129624436889
 30
0.0
 10
-10.08121558787616
 20
450.6197241709547
 30
0.0
 10
-10.10260184451782
 20
450.5478721548623
 30
0.0
 10
-10.14692268407385
 20
450.4974305880095
 30
0.0
  0
SPLINE
  5
246
330
1F
100
AcDbEntity
  8
0
  6
Continuous
 62
     7
370
    15
100
AcDbSpline
210
0.0
220
0.0
230
1.0
 70
     8
 71
     3
 72
     8
 73
     4
 74
     0
 42
0.000000001
 43
0.00000001
 40
0.8666666666666666
 40
0.8666666666666666
 40
0.8666666666666666
 40
0.8666666666666666
 40
0.9333333333333332
 40
0.9333333333333332
 40
0.9333333333333332
 40
0.9333333333333332
 10
-10.14692268407385
 20
450.4974305880095
 30
0.0
 10
-10.18974358255321
 20
450.4469890211568
 30
0.0
 10
-10.26314392491838
 20
450.4087889088975
 30
0.0
 10
-10.36862365224606
 20
450.381281924959
 30
0.0
  0
SPLINE
  5
247
330
1F
100
AcDbEntity
  8
0
  6
Continuous
 62
     7
370
    15
100
AcDbSpline
210
0.0
220
0.0
230
1.0
 70
     8
 71
     3
 72
     8
 73
     4
 74
     0
 42
0.000000001
 43
0.00000001
 40
0.125
 40
0.125
 40
0.125
 40
0.125
 40
0.25
 40
0.25
 40
0.25
 40
0.25
 10
-7.600140947151023
 20
451.1882042560681
 30
0.0
 10
-7.01150527095705
 20
451.1882042560681
 30
0.0
 10
-6.584919810922027
 20
451.3227219034023
 30
0.0
 10
-6.318884550115252
 20
451.5917571980705
 30
0.0
  0
SPLINE
  5
249
330
1F
100
AcDbEntity
  8
0
  6
Continuous
 62
     7
370
    15
100
AcDbSpline
210
0.0
220
0.0
230
1.0
 70
     8
 71
     3
 72
     8
 73
     4
 74
     0
 42
0.000000001
 43
0.00000001
 40
0.125
 40
0.125
 40
0.125
 40
0.125
 40
0.25
 40
0.25
 40
0.25
 40
0.25
 10
-7.599756617296558
 20
451.1653882190914
 30
0.0
 10
-7.011150707690512
 20
451.1653882190914
 30
0.0
 10
-6.58458681956171
 20
451.2998990640323
 30
0.0
 10
-6.318565011833472
 20
451.5689207539139
 30
0.0
  0
SPLINE
  5
24B
330
1F
100
AcDbEntity
  8
0
  6
Continuous
 62
     7
370
    15
100
AcDbSpline
210
0.0
220
0.0
230
1.0
 70
     8
 71
     3
 72
     8
 73
     4
 74
     0
 42
0.000000001
 43
0.00000001
 40
0.25
 40
0.25
 40
0.25
 40
0.25
 40
0.375
 40
0.375
 40
0.375
 40
0.375
 10
-6.318884550115252
 20
451.5917571980705
 30
0.0
 10
-6.042107232578919
 20
451.8714861618253
 30
0.0
 10
-5.902992759166865
 20
452.2704422777496
 30
0.0
 10
-5.902992759166869
 20
452.7870771412698
 30
0.0
  0
SPLINE
  5
24D
330
1F
100
AcDbEntity
  8
0
  6
Continuous
 62
     7
370
    15
100
AcDbSpline
210
0.0
220
0.0
230
1.0
 70
     8
 71
     3
 72
     8
 73
     4
 74
     0
 42
0.000000001
 43
0.00000001
 40
0.25
 40
0.25
 40
0.25
 40
0.25
 40
0.375
 40
0.375
 40
0.375
 40
0.375
 10
-6.318565011833472
 20
451.5689207539139
 30
0.0
 10
-6.041801690588382
 20
451.8486355721163
 30
0.0
 10
-5.902694252025508
 20
452.2475715133166
 30
0.0
 10
-5.902694252025513
 20
452.7641802512422
 30
0.0
  0
SPLINE
  5
24E
330
1F
100
AcDbEntity
  8
0
  6
Continuous
 62
     7
370
    15
100
AcDbSpline
210
0.0
220
0.0
230
1.0
 70
     8
 71
     3
 72
     8
 73
     4
 74
     0
 42
0.000000001
 43
0.00000001
 40
0.375
 40
0.375
 40
0.375
 40
0.375
 40
0.5
 40
0.5
 40
0.5
 40
0.5
 10
-5.902992759166869
 20
452.7870771412698
 30
0.0
 10
-5.902992759166873
 20
453.3022119878593
 30
0.0
 10
-6.042107232578933
 20
453.7011681037835
 30
0.0
 10
-6.318884550115268
 20
453.9808970675385
 30
0.0
  0
SPLINE
  5
254
330
1F
100
AcDbEntity
  8
0
  6
Continuous
 62
     7
370
    15
100
AcDbSpline
210
0.0
220
0.0
230
1.0
 70
     8
 71
     3
 72
     8
 73
     4
 74
     0
 42
0.000000001
 43
0.00000001
 40
0.625
 40
0.625
 40
0.625
 40
0.625
 40
0.75
 40
0.75
 40
0.75
 40
0.75
 10
-6.829543539734104
 20
454.2881344062966
 30
0.0
 10
-7.032916802951799
 20
454.3523448084592
 30
0.0
 10
-7.289782605424114
 20
454.3844258157192
 30
0.0
 10
-7.600140947151046
 20
454.3844258157192
 30
0.0
  0
SPLINE
  5
255
330
1F
100
AcDbEntity
  8
0
  6
Continuous
 62
     7
370
    15
100
AcDbSpline
210
0.0
220
0.0
230
1.0
 70
     8
 71
     3
 72
     8
 73
     4
 74
     0
 42
0.000000001
 43
0.00000001
 40
0.5
 40
0.5
 40
0.5
 40
0.5
 40
0.625
 40
0.625
 40
0.625
 40
0.625
 10
-6.318884550115268
 20
453.9808970675385
 30
0.0
 10
-6.45647481277516
 20
454.1215357517027
 30
0.0
 10
-6.627718681090038
 20
454.2239481979553
 30
0.0
 10
-6.829543539734104
 20
454.2881344062966
 30
0.0
  0
SPLINE
  5
257
330
1F
100
AcDbEntity
  8
0
  6
Continuous
 62
     7
370
    15
100
AcDbSpline
210
0.0
220
0.0
230
1.0
 70
     8
 71
     3
 72
     8
 73
     4
 74
     0
 42
0.000000001
 43
0.00000001
 40
0.8571428571428569
 40
0.8571428571428569
 40
0.8571428571428569
 40
0.8571428571428569
 40
0.8928571428571426
 40
0.8928571428571426
 40
0.8928571428571426
 40
0.8928571428571426
 10
-0.0775279251585692
 20
450.5814998660977
 30
0.0
 10
-0.0775279251585686
 20
450.4898099196361
 30
0.0
 10
-0.1555006685478119
 20
450.4225544971658
 30
0.0
 10
-0.311446155326294
 20
450.3812819249591
 30
0.0
  0
SPLINE
  5
25C
330
1F
100
AcDbEntity
  8
0
  6
Continuous
 62
     7
370
    15
100
AcDbSpline
210
0.0
220
0.0
230
1.0
 70
     8
 71
     3
 72
     8
 73
     4
 74
     0
 42
0.000000001
 43
0.00000001
 40
0.7142857142857141
 40
0.7142857142857141
 40
0.7142857142857141
 40
0.7142857142857141
 40
0.7499999999999998
 40
0.7499999999999998
 40
0.7499999999999998
 40
0.7499999999999998
 10
1.796914568728667
 20
450.3812819249591
 30
0.0
 10
1.665427798539237
 20
450.4057406415481
 30
0.0
 10
1.547730809216039
 20
450.460754609425
 30
0.0
 10
1.445275156639727
 20
450.5494204811351
 30
0.0
  0
SPLINE
  5
25E
330
1F
100
AcDbEntity
  8
0
  6
Continuous
 62
     7
370
    15
100
AcDbSpline
210
0.0
220
0.0
230
1.0
 70
     8
 71
     3
 72
     8
 73
     4
 74
     0
 42
0.000000001
 43
0.00000001
 40
0.6785714285714284
 40
0.6785714285714284
 40
0.6785714285714284
 40
0.6785714285714284
 40
0.7142857142857141
 40
0.7142857142857141
 40
0.7142857142857141
 40
0.7142857142857141
 10
1.445275156639727
 20
450.5494204811351
 30
0.0
 10
1.342819504063418
 20
450.6365380265725
 30
0.0
 10
1.203712065500539
 20
450.8031282564758
 30
0.0
 10
1.030952723104452
 20
451.0461670960936
 30
0.0
  0
SPLINE
  5
263
330
1F
100
AcDbEntity
  8
0
  6
Continuous
 62
     7
370
    15
100
AcDbSpline
210
0.0
220
0.0
230
1.0
 70
     8
 71
     3
 72
     8
 73
     4
 74
     0
 42
0.000000001
 43
0.00000001
 40
0.5357142857142856
 40
0.5357142857142856
 40
0.5357142857142856
 40
0.5357142857142856
 40
0.5714285714285713
 40
0.5714285714285713
 40
0.5714285714285713
 40
0.5714285714285713
 10
1.492668456143128
 20
453.8157841015814
 30
0.0
 10
1.492668456143124
 20
454.3492308877226
 30
0.0
 10
1.312264252775575
 20
454.7344012406547
 30
0.0
 10
0.9514316534424836
 20
454.9713193529757
 30
0.0
  0
SPLINE
  5
265
330
1F
100
AcDbEntity
  8
0
  6
Continuous
 62
     7
370
    15
100
AcDbSpline
210
0.0
220
0.0
230
1.0
 70
     8
 71
     3
 72
     8
 73
     4
 74
     0
 42
0.000000001
 43
0.00000001
 40
0.4999999999999998
 40
0.4999999999999998
 40
0.4999999999999998
 40
0.4999999999999998
 40
0.5357142857142856
 40
0.5357142857142856
 40
0.5357142857142856
 40
0.5357142857142856
 10
0.9514316534424836
 20
454.9713193529757
 30
0.0
 10
0.7740999100223264
 20
455.0844439412749
 30
0.0
 10
0.5737851984917892
 20
455.1623924920661
 30
0.0
 10
0.3505842892429045
 20
455.2067133316222
 30
0.0
  0
SPLINE
  5
267
330
1F
100
AcDbEntity
  8
0
  6
Continuous
 62
     7
370
    15
100
AcDbSpline
210
0.0
220
0.0
230
1.0
 70
     8
 71
     3
 72
     8
 73
     4
 74
     0
 42
0.000000001
 43
0.00000001
 40
0.4642857142857141
 40
0.4642857142857141
 40
0.4642857142857141
 40
0.4642857142857141
 40
0.4999999999999998
 40
0.4999999999999998
 40
0.4999999999999998
 40
0.4999999999999998
 10
0.3505842892429045
 20
455.2067133316222
 30
0.0
 10
0.1258108611233041
 20
455.2495100375035
 30
0.0
 10
-0.1982973744291896
 20
455.2709204867433
 30
0.0
 10
-0.6263853962326815
 20
455.2709204867433
 30
0.0
  0
SPLINE
  5
26F
330
1F
100
AcDbEntity
  8
0
  6
Continuous
 62
     7
370
    15
100
AcDbSpline
210
0.0
220
0.0
230
1.0
 70
     8
 71
     3
 72
     8
 73
     4
 74
     0
 42
0.000000001
 43
0.00000001
 40
0.2499999999999999
 40
0.2499999999999999
 40
0.2499999999999999
 40
0.2499999999999999
 40
0.2857142857142856
 40
0.2857142857142856
 40
0.2857142857142856
 40
0.2857142857142856
 10
-3.626146586598517
 20
450.712962443689
 30
0.0
 10
-3.626146586598517
 20
450.6197241709548
 30
0.0
 10
-3.647532843240182
 20
450.5478721548624
 30
0.0
 10
-3.691853682796213
 20
450.4974305880095
 30
0.0
  0
SPLINE
  5
271
330
1F
100
AcDbEntity
  8
0
  6
Continuous
 62
     7
370
    15
100
AcDbSpline
210
0.0
220
0.0
230
1.0
 70
     8
 71
     3
 72
     8
 73
     4
 74
     0
 42
0.000000001
 43
0.00000001
 40
0.2142857142857142
 40
0.2142857142857142
 40
0.2142857142857142
 40
0.2142857142857142
 40
0.2499999999999999
 40
0.2499999999999999
 40
0.2499999999999999
 40
0.2499999999999999
 10
-3.691853682796213
 20
450.4974305880095
 30
0.0
 10
-3.734674581275568
 20
450.4469890211569
 30
0.0
 10
-3.808074923640747
 20
450.4087889088975
 30
0.0
 10
-3.913554650968421
 20
450.3812819249591
 30
0.0
  0
SPLINE
  5
272
330
1F
100
AcDbEntity
  8
0
  6
Continuous
 62
     7
370
    15
100
AcDbSpline
210
0.0
220
0.0
230
1.0
 70
     8
 71
     3
 72
     8
 73
     4
 74
     0
 42
0.000000001
 43
0.00000001
 40
0.1951219512195122
 40
0.1951219512195122
 40
0.1951219512195122
 40
0.1951219512195122
 40
0.2195121951219512
 40
0.2195121951219512
 40
0.2195121951219512
 40
0.2195121951219512
 10
10.7288217543658
 20
453.3801721817966
 30
0.0
 10
10.28389568434669
 20
453.4168481603812
 30
0.0
 10
9.98422197278524
 20
453.4657655935594
 30
0.0
 10
9.828276486006752
 20
453.526900288733
 30
0.0
  0
SPLINE
  5
275
330
1F
100
AcDbEntity
  8
0
  6
Continuous
 62
     7
370
    15
100
AcDbSpline
210
0.0
220
0.0
230
1.0
 70
     8
 71
     3
 72
     8
 73
     4
 74
     0
 42
0.000000001
 43
0.00000001
 40
0.1707317073170732
 40
0.1707317073170732
 40
0.1707317073170732
 40
0.1707317073170732
 40
0.1951219512195122
 40
0.1951219512195122
 40
0.1951219512195122
 40
0.1951219512195122
 10
9.828276486006752
 20
453.526900288733
 30
0.0
 10
9.673855132902954
 20
453.5880349839066
 30
0.0
 10
9.595906582111727
 20
453.6904422512869
 30
0.0
 10
9.595906582111725
 20
453.8371945508213
 30
0.0
  0
SPLINE
  5
277
330
1F
100
AcDbEntity
  8
0
  6
Continuous
 62
     7
370
    15
100
AcDbSpline
210
0.0
220
0.0
230
1.0
 70
     8
 71
     3
 72
     8
 73
     4
 74
     0
 42
0.000000001
 43
0.00000001
 40
0.0714285714285714
 40
0.0714285714285714
 40
0.0714285714285714
 40
0.0714285714285714
 40
0.1071428571428571
 40
0.1071428571428571
 40
0.1071428571428571
 40
0.1071428571428571
 10
-2.138495349710107
 20
450.3812819249591
 30
0.0
 10
-2.245523403310485
 20
450.4133855025196
 30
0.0
 10
-2.32044787935035
 20
450.4546338821282
 30
0.0
 10
-2.363244585231694
 20
450.5035513153063
 30
0.0
  0
SPLINE
  5
27B
330
1F
100
AcDbEntity
  8
0
  6
Continuous
 62
     7
370
    15
100
AcDbSpline
210
0.0
220
0.0
230
1.0
 70
     8
 71
     3
 72
     8
 73
     4
 74
     0
 42
0.000000001
 43
0.00000001
 40
0.9512195121951225
 40
0.9512195121951225
 40
0.9512195121951225
 40
0.9512195121951225
 40
0.9756097560975615
 40
0.9756097560975615
 40
0.9756097560975615
 40
0.9756097560975615
 10
13.31113966605297
 20
454.876556946567
 30
0.0
 10
13.23621519001311
 20
454.8108256577713
 30
0.0
 10
13.17508049483948
 20
454.7771979465362
 30
0.0
 10
13.12768719533605
 20
454.7771979465362
 30
0.0
  0
SPLINE
  5
27C
330
1F
100
AcDbEntity
  8
0
  6
Continuous
 62
     7
370
    15
100
AcDbSpline
210
0.0
220
0.0
230
1.0
 70
     8
 71
     3
 72
     8
 73
     4
 74
     0
 42
0.000000001
 43
0.00000001
 40
0.9268292682926834
 40
0.9268292682926834
 40
0.9268292682926834
 40
0.9268292682926834
 40
0.9512195121951225
 40
0.9512195121951225
 40
0.9512195121951225
 40
0.9512195121951225
 10
18.77549758618482
 20
454.7771979465362
 30
0.0
 10
18.72655596040869
 20
454.7771979465362
 30
0.0
 10
18.64246248972269
 20
454.8062532567473
 30
0.0
 10
18.5201447141794
 20
454.8628155508968
 30
0.0
  0
SPLINE
  5
27E
330
1F
100
AcDbEntity
  8
0
  6
Continuous
 62
     7
370
    15
100
AcDbSpline
210
0.0
220
0.0
230
1.0
 70
     8
 71
     3
 72
     8
 73
     4
 74
     0
 42
0.000000001
 43
0.00000001
 40
0.8780487804878053
 40
0.8780487804878053
 40
0.8780487804878053
 40
0.8780487804878053
 40
0.9024390243902444
 40
0.9024390243902444
 40
0.9024390243902444
 40
0.9024390243902444
 10
17.45603329066843
 20
455.2632756257718
 30
0.0
 10
17.15788371278167
 20
455.3397000428883
 30
0.0
 10
16.83834787825323
 20
455.3779001551477
 30
0.0
 10
16.49435332713575
 20
455.3779001551477
 30
0.0
  0
SPLINE
  5
280
330
1F
100
AcDbEntity
  8
0
  6
Continuous
 62
     7
370
    15
100
AcDbSpline
210
0.0
220
0.0
230
1.0
 70
     8
 71
     3
 72
     8
 73
     4
 74
     0
 42
0.000000001
 43
0.00000001
 40
0.8536585365853663
 40
0.8536585365853663
 40
0.8536585365853663
 40
0.8536585365853663
 40
0.8780487804878053
 40
0.8780487804878053
 40
0.8780487804878053
 40
0.8780487804878053
 10
16.49435332713575
 20
455.3779001551477
 30
0.0
 10
15.86137819277765
 20
455.3779001551477
 30
0.0
 10
15.32933457732118
 20
455.2464617701542
 30
0.0
 10
14.89969822924498
 20
454.9835608075694
 30
0.0
  0
SPLINE
  5
282
330
1F
100
AcDbEntity
  8
0
  6
Continuous
 62
     7
370
    15
100
AcDbSpline
210
0.0
220
0.0
230
1.0
 70
     8
 71
     3
 72
     8
 73
     4
 74
     0
 42
0.000000001
 43
0.00000001
 40
0.8292682926829272
 40
0.8292682926829272
 40
0.8292682926829272
 40
0.8292682926829272
 40
0.8536585365853663
 40
0.8536585365853663
 40
0.8536585365853663
 40
0.8536585365853663
 10
14.89969822924498
 20
454.9835608075694
 30
0.0
 10
14.42726517528745
 20
454.6946769947209
 30
0.0
 10
14.19179861884703
 20
454.2743306042808
 30
0.0
 10
14.19179861884703
 20
453.7256182887949
 30
0.0
  0
SPLINE
  5
283
330
1F
100
AcDbEntity
  8
0
  6
Continuous
 62
     7
370
    15
100
AcDbSpline
210
0.0
220
0.0
230
1.0
 70
     8
 71
     3
 72
     9
 73
     5
 74
     0
 42
0.000000001
 43
0.00000001
 40
0.0
 40
0.0
 40
0.0
 40
0.0
 40
0.5902202407633607
 40
1.0
 40
1.0
 40
1.0
 40
1.0
 10
6.421325452656609
 20
452.3359837891867
 30
0.0
 10
6.420007016529944
 20
452.2204633528154
 30
0.0
 10
6.417773212882409
 20
452.0247390648415
 30
0.0
 10
6.371868846951197
 20
451.8347678086718
 30
0.0
 10
6.353058166931996
 20
451.7569214330569
 30
0.0
  0
SPLINE
  5
285
330
1F
100
AcDbEntity
  8
0
  6
Continuous
 62
     7
370
    15
100
AcDbSpline
210
0.0
220
0.0
230
1.0
 70
     8
 71
     3
 72
     8
 73
     4
 74
     0
 42
0.000000001
 43
0.00000001
 40
0.6551724137931034
 40
0.6551724137931034
 40
0.6551724137931034
 40
0.6551724137931034
 40
0.689655172413793
 40
0.689655172413793
 40
0.689655172413793
 40
0.689655172413793
 10
6.353058166931996
 20
451.7569214330569
 30
0.0
 10
6.305640674830562
 20
451.6071208661731
 30
0.0
 10
6.221547204144557
 20
451.4848514758259
 30
0.0
 10
6.102301888548656
 20
451.3885407431444
 30
0.0
  0
SPLINE
  5
287
330
1F
100
AcDbEntity
  8
0
  6
Continuous
 62
     7
370
    15
100
AcDbSpline
210
0.0
220
0.0
230
1.0
 70
     8
 71
     3
 72
     8
 73
     4
 74
     0
 42
0.000000001
 43
0.00000001
 40
0.6206896551724138
 40
0.6206896551724138
 40
0.6206896551724138
 40
0.6206896551724138
 40
0.6551724137931034
 40
0.6551724137931034
 40
0.6551724137931034
 40
0.6551724137931034
 10
6.102301888548656
 20
451.3885407431444
 30
0.0
 10
5.857666337462089
 20
451.1944435293026
 30
0.0
 10
5.502978658023773
 20
451.098132796621
 30
0.0
 10
5.039714598712381
 20
451.098132796621
 30
0.0
  0
SPLINE
  5
289
330
1F
100
AcDbEntity
  8
0
  6
Continuous
 62
     7
370
    15
100
AcDbSpline
210
0.0
220
0.0
230
1.0
 70
     8
 71
     3
 72
     8
 73
     4
 74
     0
 42
0.000000001
 43
0.00000001
 40
0.5862068965517242
 40
0.5862068965517242
 40
0.5862068965517242
 40
0.5862068965517242
 40
0.6206896551724138
 40
0.6206896551724138
 40
0.6206896551724138
 40
0.6206896551724138
 10
5.039714598712381
 20
451.098132796621
 30
0.0
 10
4.577998865673688
 20
451.098132796621
 30
0.0
 10
4.223286993637357
 20
451.1944435293026
 30
0.0
 10
3.978651442550787
 20
451.3885407431444
 30
0.0
  0
SPLINE
  5
28B
330
1F
100
AcDbEntity
  8
0
  6
Continuous
 62
     7
370
    15
100
AcDbSpline
210
0.0
220
0.0
230
1.0
 70
     8
 71
     3
 72
     8
 73
     4
 74
     0
 42
0.000000001
 43
0.00000001
 40
0.5517241379310346
 40
0.5517241379310346
 40
0.5517241379310346
 40
0.5517241379310346
 40
0.5862068965517242
 40
0.5862068965517242
 40
0.5862068965517242
 40
0.5862068965517242
 10
3.978651442550787
 20
451.3885407431444
 30
0.0
 10
3.8563336670075
 20
451.4848514758259
 30
0.0
 10
3.770716062646803
 20
451.6071208661731
 30
0.0
 10
3.720274495794
 20
451.7569214330569
 30
0.0
  0
SPLINE
  5
28D
330
1F
100
AcDbEntity
  8
0
  6
Continuous
 62
     7
370
    15
100
AcDbSpline
210
0.0
220
0.0
230
1.0
 70
     8
 71
     3
 72
     8
 73
     4
 74
     0
 42
0.000000001
 43
0.00000001
 40
0.517241379310345
 40
0.517241379310345
 40
0.517241379310345
 40
0.517241379310345
 40
0.5517241379310346
 40
0.5517241379310346
 40
0.5517241379310346
 40
0.5517241379310346
 10
3.720274495794
 20
451.7569214330569
 30
0.0
 10
3.671332870017879
 20
451.9051736736679
 30
0.0
 10
3.646874153428822
 20
452.1207055293472
 30
0.0
 10
3.64687415342882
 20
452.4004203475497
 30
0.0
  0
SPLINE
  5
294
330
1F
100
AcDbEntity
  8
0
  6
Continuous
 62
     7
370
    15
100
AcDbSpline
210
0.0
220
0.0
230
1.0
 70
     8
 71
     3
 72
     8
 73
     4
 74
     0
 42
0.000000001
 43
0.00000001
 40
0.2926829268292683
 40
0.2926829268292683
 40
0.2926829268292683
 40
0.2926829268292683
 40
0.3170731707317073
 40
0.3170731707317073
 40
0.3170731707317073
 40
0.3170731707317073
 10
19.15924057583429
 20
451.7829042833206
 30
0.0
 10
19.15924057583429
 20
452.0641432351979
 30
0.0
 10
19.08586442606712
 20
452.3148027431891
 30
0.0
 10
18.93908793393478
 20
452.5395035935147
 30
0.0
  0
SPLINE
  5
29A
330
1F
100
AcDbEntity
  8
0
  6
Continuous
 62
     7
370
    15
100
AcDbSpline
210
0.0
220
0.0
230
1.0
 70
     8
 71
     3
 72
     8
 73
     4
 74
     0
 42
0.000000001
 43
0.00000001
 40
0.9268292682926834
 40
0.9268292682926834
 40
0.9268292682926834
 40
0.9268292682926834
 40
0.9512195121951225
 40
0.9512195121951225
 40
0.9512195121951225
 40
0.9512195121951225
 10
13.12768719533605
 20
454.7771979465362
 30
0.0
 10
13.07874556955993
 20
454.7771979465362
 30
0.0
 10
12.99465209887392
 20
454.8062532567473
 30
0.0
 10
12.87233432333063
 20
454.8628155508968
 30
0.0
  0
SPLINE
  5
29C
330
1F
100
AcDbEntity
  8
0
  6
Continuous
 62
     7
370
    15
100
AcDbSpline
210
0.0
220
0.0
230
1.0
 70
     8
 71
     3
 72
     8
 73
     4
 74
     0
 42
0.000000001
 43
0.00000001
 40
0.9024390243902444
 40
0.9024390243902444
 40
0.9024390243902444
 40
0.9024390243902444
 40
0.9268292682926834
 40
0.9268292682926834
 40
0.9268292682926834
 40
0.9268292682926834
 10
12.87233432333063
 20
454.8628155508968
 30
0.0
 10
12.45953602347005
 20
455.0538644973891
 30
0.0
 10
12.10482415143373
 20
455.1868512086552
 30
0.0
 10
11.80822289981966
 20
455.2632756257718
 30
0.0
  0
SPLINE
  5
29E
330
1F
100
AcDbEntity
  8
0
  6
Continuous
 62
     7
370
    15
100
AcDbSpline
210
0.0
220
0.0
230
1.0
 70
     8
 71
     3
 72
     8
 73
     4
 74
     0
 42
0.000000001
 43
0.00000001
 40
0.8780487804878053
 40
0.8780487804878053
 40
0.8780487804878053
 40
0.8780487804878053
 40
0.9024390243902444
 40
0.9024390243902444
 40
0.9024390243902444
 40
0.9024390243902444
 10
11.80822289981966
 20
455.2632756257718
 30
0.0
 10
11.5100733219329
 20
455.3397000428883
 30
0.0
 10
11.19053748740447
 20
455.3779001551477
 30
0.0
 10
10.84654293628699
 20
455.3779001551477
 30
0.0
  0
SPLINE
  5
29F
330
1F
100
AcDbEntity
  8
0
  6
Continuous
 62
     7
370
    15
100
AcDbSpline
210
0.0
220
0.0
230
1.0
 70
     8
 71
     3
 72
     8
 73
     4
 74
     0
 42
0.000000001
 43
0.00000001
 40
0.8292682926829272
 40
0.8292682926829272
 40
0.8292682926829272
 40
0.8292682926829272
 40
0.8536585365853663
 40
0.8536585365853663
 40
0.8536585365853663
 40
0.8536585365853663
 10
9.251887838396224
 20
454.9835608075694
 30
0.0
 10
8.779454784438688
 20
454.6946769947209
 30
0.0
 10
8.54398822799826
 20
454.2743306042808
 30
0.0
 10
8.543988227998266
 20
453.7256182887949
 30
0.0
  0
SPLINE
  5
2A2
330
1F
100
AcDbEntity
  8
0
  6
Continuous
 62
     7
370
    15
100
AcDbSpline
210
0.0
220
0.0
230
1.0
 70
     8
 71
     3
 72
     8
 73
     4
 74
     0
 42
0.000000001
 43
0.00000001
 40
0.2439024390243902
 40
0.2439024390243902
 40
0.2439024390243902
 40
0.2439024390243902
 40
0.2682926829268292
 40
0.2682926829268292
 40
0.2682926829268292
 40
0.2682926829268292
 10
12.84789979933961
 20
452.9689947860028
 30
0.0
 10
12.52529150486379
 20
453.1600679250932
 30
0.0
 10
12.05590671825563
 20
453.2792890480911
 30
0.0
 10
11.43669717216575
 20
453.3266823475945
 30
0.0
  0
SPLINE
  5
2A5
330
1F
100
AcDbEntity
  8
0
  6
Continuous
 62
     7
370
    15
100
AcDbSpline
210
0.0
220
0.0
230
1.0
 70
     8
 71
     3
 72
     8
 73
     4
 74
     0
 42
0.000000001
 43
0.00000001
 40
0.6341463414634149
 40
0.6341463414634149
 40
0.6341463414634149
 40
0.6341463414634149
 40
0.6585365853658539
 40
0.6585365853658539
 40
0.6585365853658539
 40
0.6585365853658539
 10
12.34641143517094
 20
451.6759004223184
 30
0.0
 10
12.34641143517095
 20
451.4496996309162
 30
0.0
 10
12.19044175579445
 20
451.2846093420895
 30
0.0
 10
11.88009910851018
 20
451.1837262083839
 30
0.0
  0
SPLINE
  5
2A7
330
1F
100
AcDbEntity
  8
0
  6
Continuous
 62
     7
370
    15
100
AcDbSpline
210
0.0
220
0.0
230
1.0
 70
     8
 71
     3
 72
     8
 73
     4
 74
     0
 42
0.000000001
 43
0.00000001
 40
0.6097560975609758
 40
0.6097560975609758
 40
0.6097560975609758
 40
0.6097560975609758
 40
0.6341463414634149
 40
0.6341463414634149
 40
0.6341463414634149
 40
0.6341463414634149
 10
11.88009910851018
 20
451.1837262083839
 30
0.0
 10
11.62934283012684
 20
451.0996569302959
 30
0.0
 10
11.346507166781
 20
451.0583843580893
 30
0.0
 10
11.03001959960195
 20
451.0583843580893
 30
0.0
  0
SPLINE
  5
2A9
330
1F
100
AcDbEntity
  8
0
  6
Continuous
 62
     7
370
    15
100
AcDbSpline
210
0.0
220
0.0
230
1.0
 70
     8
 71
     3
 72
     8
 73
     4
 74
     0
 42
0.000000001
 43
0.00000001
 40
0.5853658536585368
 40
0.5853658536585368
 40
0.5853658536585368
 40
0.5853658536585368
 40
0.6097560975609758
 40
0.6097560975609758
 40
0.6097560975609758
 40
0.6097560975609758
 10
11.03001959960195
 20
451.0583843580893
 30
0.0
 10
10.67071113394355
 20
451.0583843580893
 30
0.0
 10
10.30837859353377
 20
451.1073017912673
 30
0.0
 10
9.941401074305901
 20
451.2036125239488
 30
0.0
  0
SPLINE
  5
2AB
330
1F
100
AcDbEntity
  8
0
  6
Continuous
 62
     7
370
    15
100
AcDbSpline
210
0.0
220
0.0
230
1.0
 70
     8
 71
     3
 72
     8
 73
     4
 74
     0
 42
0.000000001
 43
0.00000001
 40
0.5609756097560977
 40
0.5609756097560977
 40
0.5609756097560977
 40
0.5609756097560977
 40
0.5853658536585368
 40
0.5853658536585368
 40
0.5853658536585368
 40
0.5853658536585368
 10
9.941401074305901
 20
451.2036125239488
 30
0.0
 10
9.572947806599366
 20
451.3014231977071
 30
0.0
 10
9.31457085984258
 20
451.4145235934081
 30
0.0
 10
9.166270234035546
 20
451.5459861709997
 30
0.0
  0
SPLINE
  5
2AD
330
1F
100
AcDbEntity
  8
0
  6
Continuous
 62
     7
370
    15
100
AcDbSpline
210
0.0
220
0.0
230
1.0
 70
     8
 71
     3
 72
     8
 73
     4
 74
     0
 42
0.000000001
 43
0.00000001
 40
0.5365853658536587
 40
0.5365853658536587
 40
0.5365853658536587
 40
0.5365853658536587
 40
0.5609756097560977
 40
0.5609756097560977
 40
0.5609756097560977
 40
0.5609756097560977
 10
9.166270234035546
 20
451.5459861709997
 30
0.0
 10
9.106635479938596
 20
451.5994760052018
 30
0.0
 10
9.076080228650778
 20
451.6652072939975
 30
0.0
 10
9.076080228650778
 20
451.7431558447888
 30
0.0
  0
SPLINE
  5
2B4
330
1F
100
AcDbEntity
  8
0
  6
Continuous
 62
     7
370
    15
100
AcDbSpline
210
0.0
220
0.0
230
1.0
 70
     8
 71
     3
 72
     8
 73
     4
 74
     0
 42
0.000000001
 43
0.00000001
 40
0.2682926829268292
 40
0.2682926829268292
 40
0.2682926829268292
 40
0.2682926829268292
 40
0.2926829268292683
 40
0.2926829268292683
 40
0.2926829268292683
 40
0.2926829268292683
 10
18.93908793393478
 20
452.5395035935147
 30
0.0
 10
18.82289088568825
 20
452.7183352780115
 30
0.0
 10
18.67611439355591
 20
452.8620151175984
 30
0.0
 10
18.49571019018838
 20
452.9689947860028
 30
0.0
  0
SPLINE
  5
2B7
330
1F
100
AcDbEntity
  8
0
  6
Continuous
 62
     7
370
    15
100
AcDbSpline
210
0.0
220
0.0
230
1.0
 70
     8
 71
     3
 72
     8
 73
     4
 74
     0
 42
0.000000001
 43
0.00000001
 40
0.2926829268292683
 40
0.2926829268292683
 40
0.2926829268292683
 40
0.2926829268292683
 40
0.3170731707317073
 40
0.3170731707317073
 40
0.3170731707317073
 40
0.3170731707317073
 10
13.51143018498552
 20
451.7829042833206
 30
0.0
 10
13.51143018498551
 20
452.0641432351979
 30
0.0
 10
13.43805403521835
 20
452.3148027431891
 30
0.0
 10
13.29127754308601
 20
452.5395035935147
 30
0.0
  0
SPLINE
  5
2B9
330
1F
100
AcDbEntity
  8
0
  6
Continuous
 62
     7
370
    15
100
AcDbSpline
210
0.0
220
0.0
230
1.0
 70
     8
 71
     3
 72
     8
 73
     4
 74
     0
 42
0.000000001
 43
0.00000001
 40
0.2682926829268292
 40
0.2682926829268292
 40
0.2682926829268292
 40
0.2682926829268292
 40
0.2926829268292683
 40
0.2926829268292683
 40
0.2926829268292683
 40
0.2926829268292683
 10
13.29127754308601
 20
452.5395035935147
 30
0.0
 10
13.17508049483949
 20
452.7183352780115
 30
0.0
 10
13.02830400270714
 20
452.8620151175984
 30
0.0
 10
12.84789979933961
 20
452.9689947860028
 30
0.0
  0
SPLINE
  5
2BB
330
1F
100
AcDbEntity
  8
0
  6
Continuous
 62
     7
370
    15
100
AcDbSpline
210
0.0
220
0.0
230
1.0
 70
     8
 71
     3
 72
     8
 73
     4
 74
     0
 42
0.000000001
 43
0.00000001
 40
0.2439024390243902
 40
0.2439024390243902
 40
0.2439024390243902
 40
0.2439024390243902
 40
0.2682926829268292
 40
0.2682926829268292
 40
0.2682926829268292
 40
0.2682926829268292
 10
18.49571019018838
 20
452.9689947860028
 30
0.0
 10
18.17310189571255
 20
453.1600679250932
 30
0.0
 10
17.70371710910439
 20
453.2792890480911
 30
0.0
 10
17.08450756301451
 20
453.3266823475945
 30
0.0
  0
SPLINE
  5
2BD
330
1F
100
AcDbEntity
  8
0
  6
Continuous
 62
     7
370
    15
100
AcDbSpline
210
0.0
220
0.0
230
1.0
 70
     8
 71
     3
 72
     8
 73
     4
 74
     0
 42
0.000000001
 43
0.00000001
 40
0.1951219512195122
 40
0.1951219512195122
 40
0.1951219512195122
 40
0.1951219512195122
 40
0.2195121951219512
 40
0.2195121951219512
 40
0.2195121951219512
 40
0.2195121951219512
 10
16.37663214521456
 20
453.3801721817966
 30
0.0
 10
15.93170607519546
 20
453.4168481603812
 30
0.0
 10
15.63203236363401
 20
453.4657655935594
 30
0.0
 10
15.47608687685552
 20
453.526900288733
 30
0.0
  0
SPLINE
  5
2C0
330
1F
100
AcDbEntity
  8
0
  6
Continuous
 62
     7
370
    15
100
AcDbSpline
210
0.0
220
0.0
230
1.0
 70
     8
 71
     3
 72
     8
 73
     4
 74
     0
 42
0.000000001
 43
0.00000001
 40
0.1707317073170732
 40
0.1707317073170732
 40
0.1707317073170732
 40
0.1707317073170732
 40
0.1951219512195122
 40
0.1951219512195122
 40
0.1951219512195122
 40
0.1951219512195122
 10
15.47608687685552
 20
453.526900288733
 30
0.0
 10
15.32166552375172
 20
453.5880349839066
 30
0.0
 10
15.24371697296049
 20
453.6904422512869
 30
0.0
 10
15.24371697296049
 20
453.8371945508213
 30
0.0
  0
SPLINE
  5
2C2
330
1F
100
AcDbEntity
  8
0
  6
Continuous
 62
     7
370
    15
100
AcDbSpline
210
0.0
220
0.0
230
1.0
 70
     8
 71
     3
 72
     8
 73
     4
 74
     0
 42
0.000000001
 43
0.00000001
 40
0.5853658536585368
 40
0.5853658536585368
 40
0.5853658536585368
 40
0.5853658536585368
 40
0.6097560975609758
 40
0.6097560975609758
 40
0.6097560975609758
 40
0.6097560975609758
 10
16.67782999045071
 20
451.0583843580893
 30
0.0
 10
16.31852152479231
 20
451.0583843580893
 30
0.0
 10
15.95618898438254
 20
451.1073017912673
 30
0.0
 10
15.58921146515466
 20
451.2036125239488
 30
0.0
  0
SPLINE
  5
2C5
330
1F
100
AcDbEntity
  8
0
  6
Continuous
 62
     7
370
    15
100
AcDbSpline
210
0.0
220
0.0
230
1.0
 70
     8
 71
     3
 72
     8
 73
     4
 74
     0
 42
0.000000001
 43
0.00000001
 40
0.5365853658536587
 40
0.5365853658536587
 40
0.5365853658536587
 40
0.5365853658536587
 40
0.5609756097560977
 40
0.5609756097560977
 40
0.5609756097560977
 40
0.5609756097560977
 10
14.81408062488431
 20
451.5459861709997
 30
0.0
 10
14.75444587078736
 20
451.5994760052018
 30
0.0
 10
14.72389061949955
 20
451.6652072939975
 30
0.0
 10
14.72389061949955
 20
451.7431558447888
 30
0.0
  0
SPLINE
  5
2C8
330
1F
100
AcDbEntity
  8
0
  6
Continuous
 62
     7
370
    15
100
AcDbSpline
210
0.0
220
0.0
230
1.0
 70
     8
 71
     3
 72
     8
 73
     4
 74
     0
 42
0.000000001
 43
0.00000001
 40
0.9512195121951225
 40
0.9512195121951225
 40
0.9512195121951225
 40
0.9512195121951225
 40
0.9756097560975615
 40
0.9756097560975615
 40
0.9756097560975615
 40
0.9756097560975615
 10
18.95895005690173
 20
454.876556946567
 30
0.0
 10
18.88402558086187
 20
454.8108256577713
 30
0.0
 10
18.82289088568823
 20
454.7771979465362
 30
0.0
 10
18.77549758618482
 20
454.7771979465362
 30
0.0
  0
SPLINE
  5
2C9
330
1F
100
AcDbEntity
  8
0
  6
Continuous
 62
     7
370
    15
100
AcDbSpline
210
0.0
220
0.0
230
1.0
 70
     8
 71
     3
 72
     8
 73
     4
 74
     0
 42
0.000000001
 43
0.00000001
 40
0.5609756097560977
 40
0.5609756097560977
 40
0.5609756097560977
 40
0.5609756097560977
 40
0.5853658536585368
 40
0.5853658536585368
 40
0.5853658536585368
 40
0.5853658536585368
 10
15.58921146515466
 20
451.2036125239488
 30
0.0
 10
15.22075819744813
 20
451.3014231977071
 30
0.0
 10
14.96238125069134
 20
451.4145235934081
 30
0.0
 10
14.81408062488431
 20
451.5459861709997
 30
0.0
  0
SPLINE
  5
2CB
330
1F
100
AcDbEntity
  8
0
  6
Continuous
 62
     7
370
    15
100
AcDbSpline
210
0.0
220
0.0
230
1.0
 70
     8
 71
     3
 72
     8
 73
     4
 74
     0
 42
0.000000001
 43
0.00000001
 40
0.6097560975609758
 40
0.6097560975609758
 40
0.6097560975609758
 40
0.6097560975609758
 40
0.6341463414634149
 40
0.6341463414634149
 40
0.6341463414634149
 40
0.6341463414634149
 10
17.52790949935894
 20
451.1837262083839
 30
0.0
 10
17.2771532209756
 20
451.0996569302959
 30
0.0
 10
16.99431755762976
 20
451.0583843580893
 30
0.0
 10
16.67782999045071
 20
451.0583843580893
 30
0.0
  0
SPLINE
  5
2CD
330
1F
100
AcDbEntity
  8
0
  6
Continuous
 62
     7
370
    15
100
AcDbSpline
210
0.0
220
0.0
230
1.0
 70
     8
 71
     3
 72
     8
 73
     4
 74
     0
 42
0.000000001
 43
0.00000001
 40
0.6341463414634149
 40
0.6341463414634149
 40
0.6341463414634149
 40
0.6341463414634149
 40
0.6585365853658539
 40
0.6585365853658539
 40
0.6585365853658539
 40
0.6585365853658539
 10
17.99422182601971
 20
451.6759004223184
 30
0.0
 10
17.99422182601971
 20
451.4496996309162
 30
0.0
 10
17.83825214664322
 20
451.2846093420895
 30
0.0
 10
17.52790949935894
 20
451.1837262083839
 30
0.0
  0
LWPOLYLINE
  5
2CF
330
1F
100
AcDbEntity
  8
0
  6
Continuous
 62
     7
370
    15
100
AcDbPolyline
 90
        9
 70
   128
 43
0.0
 10
-25.9743339995
 20
-467.5380119912
 10
-27.6621039147
 20
-467.515300303
 10
-29.2820143988
 20
-467.448050978
 10
-30.7714116478
 20
-467.3388852089
 10
-32.0727931248
 20
-467.1920532551
 10
-33.1360578599
 20
-467.0132626626
 10
-33.9204452314
 20
-466.8094489959
 10
-34.3960857502
 20
-466.588499424
 10
-34.5451067626
 20
-466.3589412955
  0
LWPOLYLINE
  5
2D1
330
1F
100
AcDbEntity
  8
0
  6
Continuous
 62
     7
370
    15
100
AcDbPolyline
 90
        9
 70
   128
 43
0.0
 10
-25.9743339995
 20
467.5380119912
 10
-27.6621039147
 20
467.515300303
 10
-29.2820143988
 20
467.448050978
 10
-30.7714116478
 20
467.3388852089
 10
-32.0727931248
 20
467.1920532551
 10
-33.1360578599
 20
467.0132626626
 10
-33.9204452314
 20
466.8094489959
 10
-34.3960857502
 20
466.588499424
 10
-34.5451067626
 20
466.3589412955
  0
LWPOLYLINE
  5
2D4
330
1F
100
AcDbEntity
  8
0
  6
Continuous
 62
     7
370
    15
100
AcDbPolyline
 90
        9
 70
   128
 43
0.0
 10
25.9743339995
 20
467.5380119912
 10
27.6621039147
 20
467.515300303
 10
29.2820143988
 20
467.448050978
 10
30.7714116478
 20
467.3388852089
 10
32.0727931248
 20
467.1920532551
 10
33.1360578599
 20
467.0132626626
 10
33.9204452314
 20
466.8094489959
 10
34.3960857502
 20
466.588499424
 10
34.5451067626
 20
466.3589412955
  0
LWPOLYLINE
  5
2D5
330
1F
100
AcDbEntity
  8
0
  6
Continuous
 62
     7
370
    15
100
AcDbPolyline
 90
        9
 70
   128
 43
0.0
 10
25.9743339995
 20
-467.5380119912
 10
27.6621039147
 20
-467.515300303
 10
29.2820143988
 20
-467.448050978
 10
30.7714116478
 20
-467.3388852089
 10
32.0727931248
 20
-467.1920532551
 10
33.1360578599
 20
-467.0132626626
 10
33.9204452314
 20
-466.8094489959
 10
34.3960857502
 20
-466.588499424
 10
34.5451067626
 20
-466.3589412955
  0
LWPOLYLINE
  5
2F3
330
1F
100
AcDbEntity
  8
0
  6
Continuous
 62
     7
370
    15
100
AcDbPolyline
 90
       10
 70
   128
 43
0.0
 10
0.0
 20
-485.7446590924
 10
-1.7913942922
 20
-485.7224286874
 10
-3.5278785145
 20
-485.6564249237
 10
-5.156269251
 20
-485.5486878049
 10
-6.6267767957
 20
-485.4025436979
 10
-7.8945557127
 20
-485.2224978322
 10
-8.9210872087
 20
-485.0140895482
 10
-9.6753489616
 20
-484.783715654
 10
-10.1347370081
 20
-484.5384282756
 10
-10.1823015058
 20
-484.4958724689
  0
LWPOLYLINE
  5
2F4
330
1F
100
AcDbEntity
  8
0
  6
Continuous
 62
     7
370
    15
100
AcDbPolyline
 90
       10
 70
   128
 43
0.0
 10
10.1823015058
 20
-484.4958724689
 10
10.1347370081
 20
-484.5384282756
 10
9.6753489616
 20
-484.783715654
 10
8.9210872087
 20
-485.0140895482
 10
7.8945557127
 20
-485.2224978322
 10
6.6267767957
 20
-485.4025436979
 10
5.156269251
 20
-485.5486878049
 10
3.5278785145
 20
-485.6564249237
 10
1.7913942923
 20
-485.7224286874
 10
0.0
 20
-485.7446590924
  0
LWPOLYLINE
  5
2F5
330
1F
100
AcDbEntity
  8
0
  6
Continuous
 62
     7
370
    15
100
AcDbPolyline
 90
       11
 70
   128
 43
0.0
 10
0.0
 20
-485.3757227512
 10
1.8163240111
 20
-485.3538117958
 10
3.57991552
 20
-485.2887209372
 10
5.2396143055
 20
-485.1823563811
 10
6.7473530587
 20
-485.037829806
 10
8.0595769631
 20
-484.859362876
 10
9.1385171517
 20
-484.652158433
 10
9.953279092
 20
-484.4222429311
 10
10.4807144491
 20
-484.1762855568
 10
10.7060533784
 20
-483.9214001035
 10
10.7143381534
 20
-483.8618791724
  0
LWPOLYLINE
  5
2F6
330
1F
100
AcDbEntity
  8
0
  6
Continuous
 62
     7
370
    15
100
AcDbPolyline
 90
       11
 70
   128
 43
0.0
 10
-10.7143381534
 20
-483.8618791724
 10
-10.7060533784
 20
-483.9214001035
 10
-10.4807144491
 20
-484.1762855568
 10
-9.953279092
 20
-484.4222429311
 10
-9.1385171517
 20
-484.652158433
 10
-8.0595769631
 20
-484.859362876
 10
-6.7473530587
 20
-485.037829806
 10
-5.2396143055
 20
-485.1823563811
 10
-3.57991552
 20
-485.2887209372
 10
-1.8163240111
 20
-485.3538117958
 10
0.0
 20
-485.3757227512
  0
LWPOLYLINE
  5
2F9
330
1F
100
AcDbEntity
  8
0
  6
Continuous
 62
     7
370
    15
100
AcDbPolyline
 90
       20
 70
   128
 43
0.0
 10
10.7143381534
 20
483.8618791724
 10
10.6317296777
 20
484.0495025289
 10
10.2540377768
 20
484.3008328746
 10
9.580557349
 20
484.5396355513
 10
8.6303108873
 20
484.7589934735
 10
7.4304142729
 20
484.9525349855
 10
6.0153223629
 20
485.1146241504
 10
4.4258454449
 20
485.2405306981
 10
2.7079638887
 20
485.3265738442
 10
0.9114763394
 20
485.370234942
 10
-0.9114763394
 20
485.370234942
 10
-2.7079638888
 20
485.3265738442
 10
-4.4258454449
 20
485.2405306981
 10
-6.015322363
 20
485.1146241504
 10
-7.4304142729
 20
484.9525349855
 10
-8.6303108873
 20
484.7589934735
 10
-9.580557349
 20
484.5396355513
 10
-10.2540377768
 20
484.3008328746
 10
-10.6317296777
 20
484.0495025289
 10
-10.7143381534
 20
483.8618791724
  0
LWPOLYLINE
  5
2FA
330
1F
100
AcDbEntity
  8
0
  6
Continuous
 62
     7
370
    15
100
AcDbPolyline
 90
       19
 70
   128
 43
0.0
 10
-10.1823015058
 20
484.4958724689
 10
-10.1347370081
 20
484.5384282756
 10
-9.6753489616
 20
484.783715654
 10
-8.9210872087
 20
485.0140895482
 10
-7.8945557127
 20
485.2224978322
 10
-6.6267767957
 20
485.4025436979
 10
-5.156269251
 20
485.5486878049
 10
-3.5278785145
 20
485.6564249237
 10
-1.7913942923
 20
485.7224286874
 10
0.0
 20
485.7446590924
 10
1.7913942922
 20
485.7224286874
 10
3.5278785145
 20
485.6564249237
 10
5.156269251
 20
485.5486878049
 10
6.6267767957
 20
485.4025436979
 10
7.8945557127
 20
485.2224978322
 10
8.9210872087
 20
485.0140895482
 10
9.6753489616
 20
484.783715654
 10
10.1347370081
 20
484.5384282756
 10
10.1823015058
 20
484.4958724689
  0
LWPOLYLINE
  5
317
330
1F
100
AcDbEntity
  8
0
  6
Continuous
 62
     8
370
    15
100
AcDbPolyline
 90
       20
 70
   128
 43
0.0
 10
-10.7143369296
 20
471.4338910658
 10
-10.6317296777
 20
471.6159900635
 10
-10.2540377768
 20
471.8608646254
 10
-9.580557349
 20
472.0935333095
 10
-8.6303108873
 20
472.3072567058
 10
-7.4304142729
 20
472.4958268238
 10
-6.015322363
 20
472.6537524937
 10
-4.4258454449
 20
472.7764249495
 10
-2.7079638888
 20
472.8602579527
 10
-0.9114763394
 20
472.902797552
 10
0.9114763394
 20
472.902797552
 10
2.7079638887
 20
472.8602579527
 10
4.4258454449
 20
472.7764249495
 10
6.0153223629
 20
472.6537524937
 10
7.4304142729
 20
472.4958268238
 10
8.6303108873
 20
472.3072567058
 10
9.580557349
 20
472.0935333095
 10
10.2540377768
 20
471.8608646254
 10
10.6317296777
 20
471.6159900635
 10
10.7143363788
 20
471.4340349992
  0
LWPOLYLINE
  5
318
330
1F
100
AcDbEntity
  8
0
  6
Continuous
 62
     8
370
    15
100
AcDbPolyline
 90
       11
 70
   128
 43
0.0
 10
0.0
 20
-472.9081443988
 10
-1.8163240111
 20
-472.886796258
 10
-3.57991552
 20
-472.8233773525
 10
-5.2396143055
 20
-472.719744924
 10
-6.7473530587
 20
-472.5789307233
 10
-8.0595769631
 20
-472.4050479748
 10
-9.1385171517
 20
-472.203165878
 10
-9.953279092
 20
-471.9791560887
 10
-10.4807144491
 20
-471.7395164858
 10
-10.7060533784
 20
-471.4911781345
 10
-10.7143372225
 20
-471.4325712298
  0
LWPOLYLINE
  5
319
330
1F
100
AcDbEntity
  8
0
  6
Continuous
 62
     8
370
    15
100
AcDbPolyline
 90
       11
 70
   128
 43
0.0
 10
10.7143364192
 20
-471.4323468897
 10
10.7060533784
 20
-471.4911781345
 10
10.4807144491
 20
-471.7395164858
 10
9.953279092
 20
-471.9791560887
 10
9.1385171517
 20
-472.203165878
 10
8.0595769631
 20
-472.4050479748
 10
6.7473530587
 20
-472.5789307233
 10
5.2396143055
 20
-472.719744924
 10
3.57991552
 20
-472.8233773525
 10
1.8163240111
 20
-472.886796258
 10
0.0
 20
-472.9081443988
  0
LINE
  5
31B
330
1F
100
AcDbEntity
  8
0
  6
Continuous
 62
     7
370
    15
100
AcDbLine
 10
21.6422808557
 20
450.0970395354
 30
0.0
 11
21.6450170534
 21
450.1539445583
 31
0.0
  0
LINE
  5
31C
330
1F
100
AcDbEntity
  8
0
  6
Continuous
 62
     7
370
    15
100
AcDbLine
 10
-21.6450170534
 20
450.1539445583
 30
0.0
 11
-21.6422808557
 21
450.0970395354
 31
0.0
  0
LINE
  5
31D
330
1F
100
AcDbEntity
  8
0
  6
Continuous
 62
     7
370
    15
100
AcDbLine
 10
-19.5605993255
 20
453.2067982639
 30
0.0
 11
-19.5596101699
 21
453.1838801491
 31
0.0
  0
LINE
  5
31E
330
1F
100
AcDbEntity
  8
0
  6
Continuous
 62
     7
370
    15
100
AcDbLine
 10
-14.2433345444
 20
451.5856358872
 30
0.0
 11
-14.2426142764
 21
451.5627997526
 31
0.0
  0
LINE
  5
31F
330
1F
100
AcDbEntity
  8
0
  6
Continuous
 62
     7
370
    15
100
AcDbLine
 10
-12.737183987
 20
454.8302665499
 30
0.0
 11
-12.7378281235
 21
454.8532679247
 31
0.0
  0
LINE
  5
320
330
1F
100
AcDbEntity
  8
0
  6
Continuous
 62
     7
370
    15
100
AcDbLine
 10
-11.5371327613
 20
450.7253109557
 30
0.0
 11
-11.5365493426
 21
450.7025183266
 31
0.0
  0
LINE
  5
321
330
1F
100
AcDbEntity
  8
0
  6
Continuous
 62
     7
370
    15
100
AcDbLine
 10
-10.0813588013
 20
454.8269670472
 30
0.0
 11
-10.0818686291
 21
454.8499682551
 31
0.0
  0
LINE
  5
322
330
1F
100
AcDbEntity
  8
0
  6
Continuous
 62
     7
370
    15
100
AcDbLine
 10
6.4244593962
 20
452.3358094418
 30
0.0
 11
6.4247842897
 21
452.3586846686
 31
0.0
  0
LINE
  5
323
330
1F
100
AcDbEntity
  8
0
  6
Continuous
 62
     7
370
    15
100
AcDbLine
 10
-34.545546165
 20
466.370805008
 30
0.0
 11
-34.545546165
 21
-466.370805008
 31
0.0
  0
LINE
  5
324
330
1F
100
AcDbEntity
  8
0
  6
Continuous
 62
     7
370
    15
100
AcDbLine
 10
25.9460069226
 20
471.3120775874
 30
0.0
 11
-25.9460069226
 21
471.3120775874
 31
0.0
  0
LINE
  5
325
330
1F
100
AcDbEntity
  8
0
  6
Continuous
 62
     7
370
    15
100
AcDbLine
 10
34.545546165
 20
-466.370805008
 30
0.0
 11
34.545546165
 21
466.370805008
 31
0.0
  0
LINE
  5
326
330
1F
100
AcDbEntity
  8
0
  6
Continuous
 62
     7
370
    15
100
AcDbLine
 10
-25.9460069226
 20
-471.3120775874
 30
0.0
 11
25.9460069226
 21
-471.3120775874
 31
0.0
  0
LINE
  5
327
330
1F
100
AcDbEntity
  8
0
  6
Continuous
 62
     7
370
    15
100
AcDbLine
 10
59.5774878353
 20
-23.0124260389
 30
0.0
 11
60.0059217442
 21
-22.5838675008
 31
0.0
  0
LINE
  5
328
330
1F
100
AcDbEntity
  8
0
  6
Continuous
 62
     7
370
    15
100
AcDbLine
 10
60.0046926868
 20
5.4407233514
 30
0.0
 11
59.5762302327
 21
5.8692640655
 31
0.0
  0
LINE
  5
329
330
1F
100
AcDbEntity
  8
0
  6
Continuous
 62
     7
370
    15
100
AcDbLine
 10
37.7054188015
 20
191.2489237466
 30
0.0
 11
59.5574228796
 21
191.2489237466
 31
0.0
  0
LINE
  5
32A
330
1F
100
AcDbEntity
  8
0
  6
Continuous
 62
     7
370
    15
100
AcDbLine
 10
59.5875534768
 20
220.1869658293
 30
0.0
 11
37.7244942874
 21
220.1869658293
 31
0.0
  0
LINE
  5
32B
330
1F
100
AcDbEntity
  8
0
  6
Continuous
 62
     7
370
    15
100
AcDbLine
 10
-59.6073765301
 20
434.5565030769
 30
0.0
 11
-60.0351315689
 21
434.1243064511
 31
0.0
  0
LINE
  5
32C
330
1F
100
AcDbEntity
  8
0
  6
Continuous
 62
     7
370
    15
100
AcDbLine
 10
-59.9753553844
 20
405.8897569336
 30
0.0
 11
-59.5462120308
 21
405.4584336855
 31
0.0
  0
LINE
  5
32D
330
1F
100
AcDbEntity
  8
0
  6
Continuous
 62
     7
370
    15
100
AcDbLine
 10
37.7213213999
 20
-151.5998592171
 30
0.0
 11
59.5825417567
 21
-151.5998592171
 31
0.0
  0
LINE
  5
32E
330
1F
100
AcDbEntity
  8
0
  6
Continuous
 62
     7
370
    15
100
AcDbLine
 10
59.5624345996
 20
-122.6907338335
 30
0.0
 11
37.708591689
 21
-122.6907338335
 31
0.0
  0
LINE
  5
32F
330
1F
100
AcDbEntity
  8
0
  6
Continuous
 62
     7
370
    15
100
AcDbLine
 10
37.7272613521
 20
-280.2054091361
 30
0.0
 11
59.5919241812
 21
-280.2054091361
 31
0.0
  0
LINE
  5
330
330
1F
100
AcDbEntity
  8
0
  6
Continuous
 62
     7
370
    15
100
AcDbLine
 10
59.5530521752
 20
-251.2326148994
 30
0.0
 11
37.7026517368
 21
-251.2326148994
 31
0.0
  0
LINE
  5
331
330
1F
100
AcDbEntity
  8
0
  6
Continuous
 62
     7
370
    15
100
AcDbLine
 10
37.7331499801
 20
-408.8311282545
 30
0.0
 11
59.6012255367
 21
-408.8311282545
 31
0.0
  0
LINE
  5
332
330
1F
100
AcDbEntity
  8
0
  6
Continuous
 62
     7
370
    15
100
AcDbLine
 10
59.5437508197
 20
-379.7543267659
 30
0.0
 11
37.6967631089
 21
-379.7543267659
 31
0.0
  0
LINE
  5
333
330
1F
100
AcDbEntity
  8
0
  6
Continuous
 62
     7
370
    15
100
AcDbLine
 10
-59.5715134647
 20
-58.414369783
 30
0.0
 11
-60.0000829668
 21
-58.8429393096
 31
0.0
  0
LINE
  5
334
330
1F
100
AcDbEntity
  8
0
  6
Continuous
 62
     7
370
    15
100
AcDbLine
 10
-60.0105276245
 20
-86.8737859607
 30
0.0
 11
-59.5822007025
 21
-87.302506991
 31
0.0
  0
LINE
  5
335
330
1F
100
AcDbEntity
  8
0
  6
Continuous
 62
     7
370
    15
100
AcDbLine
 10
37.7242962768
 20
-215.9001027286
 30
0.0
 11
59.58724071
 21
-215.9001027286
 31
0.0
  0
LINE
  5
336
330
1F
100
AcDbEntity
  8
0
  6
Continuous
 62
     7
370
    15
100
AcDbLine
 10
59.5577356464
 20
-186.9642058144
 30
0.0
 11
37.7056168121
 21
-186.9642058144
 31
0.0
  0
LINE
  5
337
330
1F
100
AcDbEntity
  8
0
  6
Continuous
 62
     7
370
    15
100
AcDbLine
 10
-37.7115732702
 20
-58.412184883
 30
0.0
 11
-59.5671441427
 21
-58.412184883
 31
0.0
  0
LINE
  5
338
330
1F
100
AcDbEntity
  8
0
  6
Continuous
 62
     7
370
    15
100
AcDbLine
 10
-59.5778322136
 20
-87.3046926752
 30
0.0
 11
-37.7183398187
 21
-87.3046926752
 31
0.0
  0
LINE
  5
339
330
1F
100
AcDbEntity
  8
0
  6
Continuous
 62
     7
370
    15
100
AcDbLine
 10
37.7103800331
 20
84.12421438
 30
0.0
 11
59.5652593704
 21
84.12421438
 31
0.0
  0
LINE
  5
33A
330
1F
100
AcDbEntity
  8
0
  6
Continuous
 62
     7
370
    15
100
AcDbLine
 10
59.5797169859
 20
113.0221493751
 30
0.0
 11
37.7195330558
 21
113.0221493751
 31
0.0
  0
LINE
  5
33B
330
1F
100
AcDbEntity
  8
0
  6
Continuous
 62
     7
370
    15
100
AcDbLine
 10
-37.7343194562
 20
434.5586748287
 30
0.0
 11
-59.6030727774
 21
434.5586748287
 31
0.0
  0
LINE
  5
33C
330
1F
100
AcDbEntity
  8
0
  6
Continuous
 62
     7
370
    15
100
AcDbLine
 10
-59.5419035789
 20
405.4562663887
 30
0.0
 11
-37.6955936327
 21
405.4562663887
 31
0.0
  0
LINE
  5
33D
330
1F
100
AcDbEntity
  8
0
  6
Continuous
 62
     7
370
    15
100
AcDbLine
 10
59.569627198
 20
84.1263987313
 30
0.0
 11
59.9982395032
 21
84.5550220547
 31
0.0
  0
LINE
  5
33E
330
1F
100
AcDbEntity
  8
0
  6
Continuous
 62
     7
370
    15
100
AcDbLine
 10
60.0123678573
 20
112.5911356642
 30
0.0
 11
59.584083687
 21
113.0199639634
 31
0.0
  0
LINE
  5
33F
330
1F
100
AcDbEntity
  8
0
  6
Continuous
 62
     7
370
    15
100
AcDbLine
 10
59.5617792153
 20
191.2511044952
 30
0.0
 11
59.9905695697
 21
191.6802115571
 31
0.0
  0
LINE
  5
340
330
1F
100
AcDbEntity
  8
0
  6
Continuous
 62
     7
370
    15
100
AcDbLine
 10
60.0200139717
 20
219.7552480361
 30
0.0
 11
59.5919074714
 21
220.1847828737
 31
0.0
  0
LINE
  5
341
330
1F
100
AcDbEntity
  8
0
  6
Continuous
 62
     7
370
    15
100
AcDbLine
 10
37.7302135797
 20
-344.5157591279
 30
0.0
 11
59.5965873589
 21
-344.5157591279
 31
0.0
  0
LINE
  5
342
330
1F
100
AcDbEntity
  8
0
  6
Continuous
 62
     7
370
    15
100
AcDbLine
 10
59.5483889975
 20
-315.4959804001
 30
0.0
 11
37.6996995092
 21
-315.4959804001
 31
0.0
  0
LINE
  5
343
330
1F
100
AcDbEntity
  8
0
  6
Continuous
 62
     7
370
    15
100
AcDbLine
 10
59.6055370163
 20
-408.828954724
 30
0.0
 11
60.0333338615
 21
-408.3971648088
 31
0.0
  0
LINE
  5
344
330
1F
100
AcDbEntity
  8
0
  6
Continuous
 62
     7
370
    15
100
AcDbLine
 10
59.9771680317
 20
-380.1874661167
 30
0.0
 11
59.5480667225
 21
-379.7564961068
 31
0.0
  0
LINE
  5
345
330
1F
100
AcDbEntity
  8
0
  6
Continuous
 62
     7
370
    15
100
AcDbLine
 10
59.6009161598
 20
-344.5135816635
 30
0.0
 11
60.0288180084
 21
-344.0827047336
 31
0.0
  0
LINE
  5
346
330
1F
100
AcDbEntity
  8
0
  6
Continuous
 62
     7
370
    15
100
AcDbLine
 10
59.9817172962
 20
-315.9283450496
 30
0.0
 11
59.5527215222
 21
-315.4981543441
 31
0.0
  0
LINE
  5
347
330
1F
100
AcDbEntity
  8
0
  6
Continuous
 62
     7
370
    15
100
AcDbLine
 10
37.7153546655
 20
-23.014611865
 30
0.0
 11
59.5731170285
 21
-23.014611865
 31
0.0
  0
LINE
  5
348
330
1F
100
AcDbEntity
  8
0
  6
Continuous
 62
     7
370
    15
100
AcDbLine
 10
59.5718593278
 20
5.8714497993
 30
0.0
 11
37.7145584234
 21
5.8714497993
 31
0.0
  0
LINE
  5
349
330
1F
100
AcDbEntity
  8
0
  6
Continuous
 62
     7
370
    15
100
AcDbLine
 10
59.5962673967
 20
-280.2032284803
 30
0.0
 11
60.0242748619
 21
-279.7731155807
 31
0.0
  0
LINE
  5
34A
330
1F
100
AcDbEntity
  8
0
  6
Continuous
 62
     7
370
    15
100
AcDbLine
 10
59.9862881207
 20
-251.6643530671
 30
0.0
 11
59.5573984038
 21
-251.2347927114
 31
0.0
  0
LINE
  5
34B
330
1F
100
AcDbEntity
  8
0
  6
Continuous
 62
     7
370
    15
100
AcDbLine
 10
59.5915953746
 20
-215.8979196341
 30
0.0
 11
60.0197089635
 21
-215.468421084
 31
0.0
  0
LINE
  5
34C
330
1F
100
AcDbEntity
  8
0
  6
Continuous
 62
     7
370
    15
100
AcDbLine
 10
59.9908758495
 20
-187.395466434
 30
0.0
 11
59.5620926039
 21
-186.9663867477
 31
0.0
  0
LINE
  5
34D
330
1F
100
AcDbEntity
  8
0
  6
Continuous
 62
     7
370
    15
100
AcDbLine
 10
59.5869048575
 20
-151.5976744445
 30
0.0
 11
60.0151249688
 21
-151.1686399902
 31
0.0
  0
LINE
  5
34E
330
1F
100
AcDbEntity
  8
0
  6
Continuous
 62
     7
370
    15
100
AcDbLine
 10
59.9954757359
 20
-123.1216664025
 30
0.0
 11
59.5667992658
 21
-122.6929171318
 31
0.0
  0
LINE
  5
34F
330
1F
100
AcDbEntity
  8
0
  6
Continuous
 62
     7
370
    15
100
AcDbLine
 10
37.6955936327
 20
405.4562663887
 30
0.0
 11
59.5419035789
 21
405.4562663887
 31
0.0
  0
LINE
  5
350
330
1F
100
AcDbEntity
  8
0
  6
Continuous
 62
     7
370
    15
100
AcDbLine
 10
59.6030727774
 20
434.5586748287
 30
0.0
 11
37.7343194562
 21
434.5586748287
 31
0.0
  0
LINE
  5
351
330
1F
100
AcDbEntity
  8
0
  6
Continuous
 62
     7
370
    15
100
AcDbLine
 10
59.5462120308
 20
405.4584336855
 30
0.0
 11
59.9753553844
 21
405.8897569336
 31
0.0
  0
LINE
  5
352
330
1F
100
AcDbEntity
  8
0
  6
Continuous
 62
     7
370
    15
100
AcDbLine
 10
60.0351315688
 20
434.1243064511
 30
0.0
 11
59.6073765301
 21
434.5565030769
 31
0.0
  0
LINE
  5
353
330
1F
100
AcDbEntity
  8
0
  6
Continuous
 62
     7
370
    15
100
AcDbLine
 10
37.700485344
 20
298.3595747932
 30
0.0
 11
59.5496302593
 21
298.3595747932
 31
0.0
  0
LINE
  5
354
330
1F
100
AcDbEntity
  8
0
  6
Continuous
 62
     7
370
    15
100
AcDbLine
 10
59.5953460971
 20
327.3658406035
 30
0.0
 11
37.7294277449
 21
327.3658406035
 31
0.0
  0
LINE
  5
355
330
1F
100
AcDbEntity
  8
0
  6
Continuous
 62
     7
370
    15
100
AcDbLine
 10
59.5539667263
 20
298.3617498411
 30
0.0
 11
59.982934265
 21
298.7917578562
 31
0.0
  0
LINE
  5
356
330
1F
100
AcDbEntity
  8
0
  6
Continuous
 62
     7
370
    15
100
AcDbLine
 10
60.0276089861
 20
326.9330036236
 30
0.0
 11
59.5996790287
 21
327.363662215
 31
0.0
  0
LINE
  5
357
330
1F
100
AcDbEntity
  8
0
  6
Continuous
 62
     7
370
    15
100
AcDbLine
 10
-10.6067558541
 20
-484.0758678563
 30
0.0
 11
-10.1823015058
 21
-484.4958724689
 31
0.0
  0
LINE
  5
358
330
1F
100
AcDbEntity
  8
0
  6
Continuous
 62
     7
370
    15
100
AcDbLine
 10
10.1823015058
 20
-484.4958724689
 30
0.0
 11
10.6067558541
 21
-484.0758678563
 31
0.0
  0
LINE
  5
359
330
1F
100
AcDbEntity
  8
0
  6
Continuous
 62
     7
370
    15
100
AcDbLine
 10
-37.701158434
 20
-383.5044537555
 30
0.0
 11
-59.5506934356
 21
-383.5044537555
 31
0.0
  0
LINE
  5
35A
330
1F
100
AcDbEntity
  8
0
  6
Continuous
 62
     7
370
    15
100
AcDbLine
 10
-59.5933299567
 20
-405.074693877
 30
0.0
 11
-37.7281513395
 21
-405.074693877
 31
0.0
  0
LINE
  5
35B
330
1F
100
AcDbEntity
  8
0
  6
Continuous
 62
     7
370
    15
100
AcDbLine
 10
10.7143381534
 20
471.4331860847
 30
0.0
 11
10.7143381534
 21
483.8618791724
 31
0.0
  0
LINE
  5
35C
330
1F
100
AcDbEntity
  8
0
  6
Continuous
 62
     7
370
    15
100
AcDbLine
 10
-10.7143381534
 20
483.8618791724
 30
0.0
 11
-10.7143381534
 21
471.4331860847
 31
0.0
  0
LINE
  5
35D
330
1F
100
AcDbEntity
  8
0
  6
Continuous
 62
     7
370
    15
100
AcDbLine
 10
10.6067558541
 20
484.0758678563
 30
0.0
 11
10.1823015058
 21
484.4958724689
 31
0.0
  0
LINE
  5
35E
330
1F
100
AcDbEntity
  8
0
  6
Continuous
 62
     7
370
    15
100
AcDbLine
 10
-10.1823015058
 20
484.4958724689
 30
0.0
 11
-10.6067558541
 21
484.0758678563
 31
0.0
  0
LINE
  5
35F
330
1F
100
AcDbEntity
  8
0
  6
Continuous
 62
     7
370
    15
100
AcDbLine
 10
-59.5538954323
 20
-383.5060633676
 30
0.0
 11
-59.9830468947
 21
-383.9371275719
 31
0.0
  0
LINE
  5
360
330
1F
100
AcDbEntity
  8
0
  6
Continuous
 62
     7
370
    15
100
AcDbLine
 10
-60.0242682707
 20
-404.6414127253
 30
0.0
 11
-59.5965278755
 21
-405.0730819594
 31
0.0
  0
LINE
  5
361
330
1F
100
AcDbEntity
  8
0
  6
Continuous
 62
     7
370
    15
100
AcDbLine
 10
10.7143381534
 20
-483.8618791724
 30
0.0
 11
10.7143381534
 21
-471.4331860847
 31
0.0
  0
LINE
  5
362
330
1F
100
AcDbEntity
  8
0
  6
Continuous
 62
     7
370
    15
100
AcDbLine
 10
-10.7143381534
 20
-471.4331860847
 30
0.0
 11
-10.7143381534
 21
-483.8618791724
 31
0.0
  0
LINE
  5
363
330
1F
100
AcDbEntity
  8
0
  6
Continuous
 62
     7
370
    15
100
AcDbLine
 10
-3.913554651
 20
450.381281925
 30
0.0
 11
-3.913554651
 21
450.2787101196
 31
0.0
  0
LINE
  5
364
330
1F
100
AcDbEntity
  8
0
  6
Continuous
 62
     7
370
    15
100
AcDbLine
 10
-3.9137525647
 20
450.4040583086
 30
0.0
 11
-3.9137525647
 21
450.2787101196
 31
0.0
  0
LINE
  5
365
330
1F
100
AcDbEntity
  8
0
  6
Continuous
 62
     7
370
    15
100
AcDbLine
 10
-3.913554651
 20
450.381281925
 30
0.0
 11
-3.9137525647
 21
450.4040583086
 31
0.0
  0
LINE
  5
366
330
1F
100
AcDbEntity
  8
0
  6
Continuous
 62
     7
370
    15
100
AcDbLine
 10
16.1939743914
 20
452.2582002041
 30
0.0
 11
16.8972887814
 21
452.198586628
 31
0.0
  0
LINE
  5
367
330
1F
100
AcDbEntity
  8
0
  6
Continuous
 62
     7
370
    15
100
AcDbLine
 10
14.7246352263
 20
451.7660011002
 30
0.0
 11
14.7246352263
 21
451.8026789336
 31
0.0
  0
LINE
  5
368
330
1F
100
AcDbEntity
  8
0
  6
Continuous
 62
     7
370
    15
100
AcDbLine
 10
14.7246352263
 20
451.8026789336
 30
0.0
 11
14.6129807403
 21
451.8470262083
 31
0.0
  0
LINE
  5
369
330
1F
100
AcDbEntity
  8
0
  6
Continuous
 62
     7
370
    15
100
AcDbLine
 10
14.6129807403
 20
451.8470262083
 30
0.0
 11
14.0977249246
 21
450.6195768702
 31
0.0
  0
LINE
  5
36A
330
1F
100
AcDbEntity
  8
0
  6
Continuous
 62
     7
370
    15
100
AcDbLine
 10
14.0977249246
 20
450.6195768702
 30
0.0
 11
14.2093552168
 21
450.5752537893
 31
0.0
  0
LINE
  5
36B
330
1F
100
AcDbEntity
  8
0
  6
Continuous
 62
     7
370
    15
100
AcDbLine
 10
17.0853715494
 20
453.3496076841
 30
0.0
 11
16.3774603334
 21
453.4031002234
 31
0.0
  0
LINE
  5
36C
330
1F
100
AcDbEntity
  8
0
  6
Continuous
 62
     7
370
    15
100
AcDbLine
 10
18.3544342604
 20
453.7302006895
 30
0.0
 11
18.4614435328
 21
453.672135518
 31
0.0
  0
LINE
  5
36D
330
1F
100
AcDbEntity
  8
0
  6
Continuous
 62
     7
370
    15
100
AcDbLine
 10
18.4614435328
 20
453.672135518
 30
0.0
 11
19.0669423025
 21
454.841471297
 31
0.0
  0
LINE
  5
36E
330
1F
100
AcDbEntity
  8
0
  6
Continuous
 62
     7
370
    15
100
AcDbLine
 10
19.0669423025
 20
454.841471297
 30
0.0
 11
18.9599088364
 21
454.8995606623
 31
0.0
  0
LINE
  5
36F
330
1F
100
AcDbEntity
  8
0
  6
Continuous
 62
     7
370
    15
100
AcDbLine
 10
-0.3114619056
 20
450.4040583086
 30
0.0
 11
-0.3114619056
 21
450.2787101196
 31
0.0
  0
LINE
  5
370
330
1F
100
AcDbEntity
  8
0
  6
Continuous
 62
     7
370
    15
100
AcDbLine
 10
-0.3114619056
 20
450.2787101196
 30
0.0
 11
1.7970054411
 21
450.2787101196
 31
0.0
  0
LINE
  5
371
330
1F
100
AcDbEntity
  8
0
  6
Continuous
 62
     7
370
    15
100
AcDbLine
 10
1.7970054411
 20
450.2787101196
 30
0.0
 11
1.7970054411
 21
450.4040583086
 31
0.0
  0
LINE
  5
372
330
1F
100
AcDbEntity
  8
0
  6
Continuous
 62
     7
370
    15
100
AcDbLine
 10
1.0310048598
 20
451.0689771039
 30
0.0
 11
0.0814941426
 21
452.3911936407
 31
0.0
  0
LINE
  5
373
330
1F
100
AcDbEntity
  8
0
  6
Continuous
 62
     7
370
    15
100
AcDbLine
 10
-0.6264170734
 20
455.293944146
 30
0.0
 11
-3.9137525647
 21
455.293944146
 31
0.0
  0
LINE
  5
374
330
1F
100
AcDbEntity
  8
0
  6
Continuous
 62
     7
370
    15
100
AcDbLine
 10
-3.9137525647
 20
455.293944146
 30
0.0
 11
-3.9137525647
 21
455.168595957
 31
0.0
  0
LINE
  5
375
330
1F
100
AcDbEntity
  8
0
  6
Continuous
 62
     7
370
    15
100
AcDbLine
 10
-3.6263299657
 20
454.8368986647
 30
0.0
 11
-3.6263299657
 21
450.7357556009
 31
0.0
  0
LINE
  5
376
330
1F
100
AcDbEntity
  8
0
  6
Continuous
 62
     7
370
    15
100
AcDbLine
 10
-2.4260502891
 20
450.7388040224
 30
0.0
 11
-2.4260502891
 21
452.3376769076
 31
0.0
  0
LINE
  5
377
330
1F
100
AcDbEntity
  8
0
  6
Continuous
 62
     7
370
    15
100
AcDbLine
 10
-2.4260502891
 20
452.3376769076
 30
0.0
 11
-1.2242705956
 21
452.3376769076
 31
0.0
  0
LINE
  5
378
330
1F
100
AcDbEntity
  8
0
  6
Continuous
 62
     7
370
    15
100
AcDbLine
 10
-1.2242705956
 20
452.3376769076
 30
0.0
 11
-0.2212673392
 21
450.9039026601
 31
0.0
  0
LINE
  5
379
330
1F
100
AcDbEntity
  8
0
  6
Continuous
 62
     7
370
    15
100
AcDbLine
 10
-13.0250247585
 20
455.293944146
 30
0.0
 11
-13.0250247585
 21
455.168595957
 31
0.0
  0
LINE
  5
37A
330
1F
100
AcDbEntity
  8
0
  6
Continuous
 62
     7
370
    15
100
AcDbLine
 10
-12.7376021595
 20
454.8368986647
 30
0.0
 11
-12.7376021595
 21
450.7357556009
 31
0.0
  0
LINE
  5
37B
330
1F
100
AcDbEntity
  8
0
  6
Continuous
 62
     7
370
    15
100
AcDbLine
 10
-13.0250247585
 20
450.4040583086
 30
0.0
 11
-13.0250247585
 21
450.2787101196
 31
0.0
  0
LINE
  5
37C
330
1F
100
AcDbEntity
  8
0
  6
Continuous
 62
     7
370
    15
100
AcDbLine
 10
-13.0250247585
 20
450.2787101196
 30
0.0
 11
-11.2498756901
 21
450.2787101196
 31
0.0
  0
LINE
  5
37D
330
1F
100
AcDbEntity
  8
0
  6
Continuous
 62
     7
370
    15
100
AcDbLine
 10
-11.2498756901
 20
450.2787101196
 30
0.0
 11
-11.2498756901
 21
450.4040583086
 31
0.0
  0
LINE
  5
37E
330
1F
100
AcDbEntity
  8
0
  6
Continuous
 62
     7
370
    15
100
AcDbLine
 10
-11.5373224829
 20
450.7403282331
 30
0.0
 11
-11.5373224829
 21
454.8368986647
 31
0.0
  0
LINE
  5
37F
330
1F
100
AcDbEntity
  8
0
  6
Continuous
 62
     7
370
    15
100
AcDbLine
 10
-11.2498756901
 20
455.168595957
 30
0.0
 11
-11.2498756901
 21
455.293944146
 31
0.0
  0
LINE
  5
380
330
1F
100
AcDbEntity
  8
0
  6
Continuous
 62
     7
370
    15
100
AcDbLine
 10
-11.2498756901
 20
455.293944146
 30
0.0
 11
-13.0250247585
 21
455.293944146
 31
0.0
  0
LINE
  5
381
330
1F
100
AcDbEntity
  8
0
  6
Continuous
 62
     7
370
    15
100
AcDbLine
 10
21.6480149096
 20
460.6697572762
 30
0.0
 11
21.6480149096
 21
450.2787101196
 31
0.0
  0
LINE
  5
382
330
1F
100
AcDbEntity
  8
0
  6
Continuous
 62
     7
370
    15
100
AcDbLine
 10
19.0502531204
 20
447.6809483305
 30
0.0
 11
-19.0502531204
 21
447.6809483305
 31
0.0
  0
LINE
  5
383
330
1F
100
AcDbEntity
  8
0
  6
Continuous
 62
     7
370
    15
100
AcDbLine
 10
-21.6480149096
 20
450.2787101196
 30
0.0
 11
-21.6480149096
 21
460.6697572762
 31
0.0
  0
LINE
  5
384
330
1F
100
AcDbEntity
  8
0
  6
Continuous
 62
     7
370
    15
100
AcDbLine
 10
-19.0502531204
 20
463.2675190654
 30
0.0
 11
19.0502531204
 21
463.2675190654
 31
0.0
  0
LINE
  5
385
330
1F
100
AcDbEntity
  8
0
  6
Continuous
 62
     7
370
    15
100
AcDbLine
 10
-15.258864488
 20
454.5953717451
 30
0.0
 11
-15.1289194729
 21
454.5281129214
 31
0.0
  0
LINE
  5
386
330
1F
100
AcDbEntity
  8
0
  6
Continuous
 62
     7
370
    15
100
AcDbLine
 10
-15.1289194729
 20
454.5281129214
 30
0.0
 11
-14.4133388155
 21
455.9924923531
 31
0.0
  0
LINE
  5
387
330
1F
100
AcDbEntity
  8
0
  6
Continuous
 62
     7
370
    15
100
AcDbLine
 10
-14.4133388155
 20
455.9924923531
 30
0.0
 11
-14.5387111983
 21
456.0597511767
 31
0.0
  0
LINE
  5
388
330
1F
100
AcDbEntity
  8
0
  6
Continuous
 62
     7
370
    15
100
AcDbLine
 10
-13.9530997498
 20
451.1652685133
 30
0.0
 11
-13.9530997498
 21
451.2768746117
 31
0.0
  0
LINE
  5
389
330
1F
100
AcDbEntity
  8
0
  6
Continuous
 62
     7
370
    15
100
AcDbLine
 10
-14.243619158
 20
451.6039750779
 30
0.0
 11
-14.243619158
 21
452.8574085803
 31
0.0
  0
LINE
  5
38A
330
1F
100
AcDbEntity
  8
0
  6
Continuous
 62
     7
370
    15
100
AcDbLine
 10
-13.9530997498
 20
453.1845090464
 30
0.0
 11
-13.9530997498
 21
453.3281961521
 31
0.0
  0
LINE
  5
38B
330
1F
100
AcDbEntity
  8
0
  6
Continuous
 62
     7
370
    15
100
AcDbLine
 10
-13.9530997498
 20
453.3281961521
 30
0.0
 11
-16.852076019
 21
453.3281961521
 31
0.0
  0
LINE
  5
38C
330
1F
100
AcDbEntity
  8
0
  6
Continuous
 62
     7
370
    15
100
AcDbLine
 10
-17.1746764344
 20
453.6155703634
 30
0.0
 11
-17.3184119277
 21
453.6155703634
 31
0.0
  0
LINE
  5
38D
330
1F
100
AcDbEntity
  8
0
  6
Continuous
 62
     7
370
    15
100
AcDbLine
 10
-17.3184119277
 20
453.6155703634
 30
0.0
 11
-17.3184119277
 21
452.1894171697
 31
0.0
  0
LINE
  5
38E
330
1F
100
AcDbEntity
  8
0
  6
Continuous
 62
     7
370
    15
100
AcDbLine
 10
-17.3184119277
 20
452.1894171697
 30
0.0
 11
-17.1746764344
 21
452.1894171697
 31
0.0
  0
LINE
  5
38F
330
1F
100
AcDbEntity
  8
0
  6
Continuous
 62
     7
370
    15
100
AcDbLine
 10
-16.852076019
 20
452.476791381
 30
0.0
 11
-15.3460106329
 21
452.476791381
 31
0.0
  0
LINE
  5
390
330
1F
100
AcDbEntity
  8
0
  6
Continuous
 62
     7
370
    15
100
AcDbLine
 10
-15.3460106329
 20
452.476791381
 30
0.0
 11
-15.3460106329
 21
451.6452497373
 31
0.0
  0
LINE
  5
391
330
1F
100
AcDbEntity
  8
0
  6
Continuous
 62
     7
370
    15
100
AcDbLine
 10
-7.4258486573
 20
455.293944146
 30
0.0
 11
-10.3691480074
 21
455.293944146
 31
0.0
  0
LINE
  5
392
330
1F
100
AcDbEntity
  8
0
  6
Continuous
 62
     7
370
    15
100
AcDbLine
 10
-10.3691480074
 20
455.293944146
 30
0.0
 11
-10.3691480074
 21
455.168595957
 31
0.0
  0
LINE
  5
393
330
1F
100
AcDbEntity
  8
0
  6
Continuous
 62
     7
370
    15
100
AcDbLine
 10
-10.0817254084
 20
454.8368986647
 30
0.0
 11
-10.0817254084
 21
450.7357556009
 31
0.0
  0
LINE
  5
394
330
1F
100
AcDbEntity
  8
0
  6
Continuous
 62
     7
370
    15
100
AcDbLine
 10
-10.3691480074
 20
450.4040583086
 30
0.0
 11
-10.3691480074
 21
450.2787101196
 31
0.0
  0
LINE
  5
395
330
1F
100
AcDbEntity
  8
0
  6
Continuous
 62
     7
370
    15
100
AcDbLine
 10
-10.3691480074
 20
450.2787101196
 30
0.0
 11
-7.4258486573
 21
450.2787101196
 31
0.0
  0
LINE
  5
396
330
1F
100
AcDbEntity
  8
0
  6
Continuous
 62
     7
370
    15
100
AcDbLine
 10
6.1377641127
 20
455.293944146
 30
0.0
 11
6.1377641127
 21
455.168595957
 31
0.0
  0
LINE
  5
397
330
1F
100
AcDbEntity
  8
0
  6
Continuous
 62
     7
370
    15
100
AcDbLine
 10
6.4252350993
 20
454.8368986647
 30
0.0
 11
6.4252350993
 21
452.4232988418
 31
0.0
  0
LINE
  5
398
330
1F
100
AcDbEntity
  8
0
  6
Continuous
 62
     7
370
    15
100
AcDbLine
 10
3.6470585807
 20
452.4232988418
 30
0.0
 11
3.6470585807
 21
454.8368986647
 31
0.0
  0
LINE
  5
399
330
1F
100
AcDbEntity
  8
0
  6
Continuous
 62
     7
370
    15
100
AcDbLine
 10
3.937553795
 20
455.168595957
 30
0.0
 11
3.937553795
 21
455.293944146
 31
0.0
  0
LINE
  5
39A
330
1F
100
AcDbEntity
  8
0
  6
Continuous
 62
     7
370
    15
100
AcDbLine
 10
3.937553795
 20
455.293944146
 30
0.0
 11
2.1593563052
 21
455.293944146
 31
0.0
  0
LINE
  5
39B
330
1F
100
AcDbEntity
  8
0
  6
Continuous
 62
     7
370
    15
100
AcDbLine
 10
2.1593563052
 20
455.293944146
 30
0.0
 11
2.1593563052
 21
455.168595957
 31
0.0
  0
LINE
  5
39C
330
1F
100
AcDbEntity
  8
0
  6
Continuous
 62
     7
370
    15
100
AcDbLine
 10
2.446803098
 20
454.8368986647
 30
0.0
 11
2.446803098
 21
452.1817719221
 31
0.0
  0
LINE
  5
39D
330
1F
100
AcDbEntity
  8
0
  6
Continuous
 62
     7
370
    15
100
AcDbLine
 10
7.5230297482
 20
452.1817719221
 30
0.0
 11
7.5230297482
 21
454.8368986647
 31
0.0
  0
LINE
  5
39E
330
1F
100
AcDbEntity
  8
0
  6
Continuous
 62
     7
370
    15
100
AcDbLine
 10
7.8105007348
 20
455.168595957
 30
0.0
 11
7.8105007348
 21
455.293944146
 31
0.0
  0
LINE
  5
39F
330
1F
100
AcDbEntity
  8
0
  6
Continuous
 62
     7
370
    15
100
AcDbLine
 10
7.8105007348
 20
455.293944146
 30
0.0
 11
6.1377641127
 21
455.293944146
 31
0.0
  0
LINE
  5
3A0
330
1F
100
AcDbEntity
  8
0
  6
Continuous
 62
     7
370
    15
100
AcDbLine
 10
10.5458783833
 20
452.2582002041
 30
0.0
 11
11.2491927732
 21
452.198586628
 31
0.0
  0
LINE
  5
3A1
330
1F
100
AcDbEntity
  8
0
  6
Continuous
 62
     7
370
    15
100
AcDbLine
 10
9.0765392182
 20
451.7660011002
 30
0.0
 11
9.0765392182
 21
451.8026789336
 31
0.0
  0
LINE
  5
3A2
330
1F
100
AcDbEntity
  8
0
  6
Continuous
 62
     7
370
    15
100
AcDbLine
 10
9.0765392182
 20
451.8026789336
 30
0.0
 11
8.9648847321
 21
451.8470262083
 31
0.0
  0
LINE
  5
3A3
330
1F
100
AcDbEntity
  8
0
  6
Continuous
 62
     7
370
    15
100
AcDbLine
 10
8.9648847321
 20
451.8470262083
 30
0.0
 11
8.4496289164
 21
450.6195768702
 31
0.0
  0
LINE
  5
3A4
330
1F
100
AcDbEntity
  8
0
  6
Continuous
 62
     7
370
    15
100
AcDbLine
 10
8.4496289164
 20
450.6195768702
 30
0.0
 11
8.5612592086
 21
450.5752537893
 31
0.0
  0
LINE
  5
3A5
330
1F
100
AcDbEntity
  8
0
  6
Continuous
 62
     7
370
    15
100
AcDbLine
 10
11.4372755412
 20
453.3496076841
 30
0.0
 11
10.7293643252
 21
453.4031002234
 31
0.0
  0
LINE
  5
3A6
330
1F
100
AcDbEntity
  8
0
  6
Continuous
 62
     7
370
    15
100
AcDbLine
 10
12.7063382523
 20
453.7302006895
 30
0.0
 11
12.8133475246
 21
453.672135518
 31
0.0
  0
LINE
  5
3A7
330
1F
100
AcDbEntity
  8
0
  6
Continuous
 62
     7
370
    15
100
AcDbLine
 10
12.8133475246
 20
453.672135518
 30
0.0
 11
13.4188462943
 21
454.841471297
 31
0.0
  0
LINE
  5
3A8
330
1F
100
AcDbEntity
  8
0
  6
Continuous
 62
     7
370
    15
100
AcDbLine
 10
13.4188462943
 20
454.841471297
 30
0.0
 11
13.3118128282
 21
454.8995606623
 31
0.0
  0
LINE
  5
3A9
330
1F
100
AcDbEntity
  8
0
  6
Continuous
 62
     7
370
    15
100
AcDbLine
 10
-2.1386034963
 20
450.2787101196
 30
0.0
 11
-2.1386034963
 21
450.4040583086
 31
0.0
  0
LINE
  5
3AA
330
1F
100
AcDbEntity
  8
0
  6
Continuous
 62
     7
370
    15
100
AcDbLine
 10
-3.9137525647
 20
450.2787101196
 30
0.0
 11
-2.1386034963
 21
450.2787101196
 31
0.0
  0
LINE
  5
3AB
330
1F
100
AcDbEntity
  8
0
  6
Continuous
 62
     7
370
    15
100
AcDbLine
 10
-2.4259276067
 20
450.716010711
 30
0.0
 11
-2.4260502891
 21
450.7388040224
 31
0.0
  0
LINE
  5
3AC
330
1F
100
AcDbEntity
  8
0
  6
Continuous
 62
     7
370
    15
100
AcDbLine
 10
-2.3632445852
 20
450.5035513153
 30
0.0
 11
-2.3633640977
 21
450.5263338823
 31
0.0
  0
LINE
  5
3AD
330
1F
100
AcDbEntity
  8
0
  6
Continuous
 62
     7
370
    15
100
AcDbLine
 10
-0.0087241764
 20
453.314440893
 30
0.0
 11
-0.0087246176
 21
453.3373656104
 31
0.0
  0
LINE
  5
3AE
330
1F
100
AcDbEntity
  8
0
  6
Continuous
 62
     7
370
    15
100
AcDbLine
 10
-0.6172164016
 20
453.2242750802
 30
0.0
 11
-0.617247615
 21
453.2471952379
 31
0.0
  0
LINE
  5
3AF
330
1F
100
AcDbEntity
  8
0
  6
Continuous
 62
     7
370
    15
100
AcDbLine
 10
0.2695390859
 20
453.7928737113
 30
0.0
 11
0.2695527169
 21
453.8158226237
 31
0.0
  0
LINE
  5
3B0
330
1F
100
AcDbEntity
  8
0
  6
Continuous
 62
     7
370
    15
100
AcDbLine
 10
-2.4260502891
 20
453.2471952379
 30
0.0
 11
-0.617247615
 21
453.2471952379
 31
0.0
  0
LINE
  5
3B1
330
1F
100
AcDbEntity
  8
0
  6
Continuous
 62
     7
370
    15
100
AcDbLine
 10
-2.4259276067
 20
453.2242750802
 30
0.0
 11
-0.6172164016
 21
453.2242750802
 31
0.0
  0
LINE
  5
3B2
330
1F
100
AcDbEntity
  8
0
  6
Continuous
 62
     7
370
    15
100
AcDbLine
 10
-2.4259276067
 20
453.2242750802
 30
0.0
 11
-2.4260502891
 21
453.2471952379
 31
0.0
  0
LINE
  5
3B3
330
1F
100
AcDbEntity
  8
0
  6
Continuous
 62
     7
370
    15
100
AcDbLine
 10
-2.4260502891
 20
454.3844258157
 30
0.0
 11
-2.4260502891
 21
453.2471952379
 31
0.0
  0
LINE
  5
3B4
330
1F
100
AcDbEntity
  8
0
  6
Continuous
 62
     7
370
    15
100
AcDbLine
 10
-0.617247615
 20
454.3844258157
 30
0.0
 11
-2.4260502891
 21
454.3844258157
 31
0.0
  0
LINE
  5
3B5
330
1F
100
AcDbEntity
  8
0
  6
Continuous
 62
     7
370
    15
100
AcDbLine
 10
7.8101057673
 20
455.168450416
 30
0.0
 11
7.8101057673
 21
455.2709204867
 31
0.0
  0
LINE
  5
3B6
330
1F
100
AcDbEntity
  8
0
  6
Continuous
 62
     7
370
    15
100
AcDbLine
 10
7.8101057673
 20
455.2709204867
 30
0.0
 11
7.8105007348
 21
455.293944146
 31
0.0
  0
LINE
  5
3B7
330
1F
100
AcDbEntity
  8
0
  6
Continuous
 62
     7
370
    15
100
AcDbLine
 10
7.8101057673
 20
455.2709204867
 30
0.0
 11
6.1377641127
 21
455.2709204867
 31
0.0
  0
LINE
  5
3B8
330
1F
100
AcDbEntity
  8
0
  6
Continuous
 62
     7
370
    15
100
AcDbLine
 10
19.0502531204
 20
447.6809483305
 30
0.0
 11
19.047844933
 21
447.6243559249
 31
0.0
  0
LINE
  5
3B9
330
1F
100
AcDbEntity
  8
0
  6
Continuous
 62
     7
370
    15
100
AcDbLine
 10
-19.047844933
 20
447.6243559249
 30
0.0
 11
19.047844933
 21
447.6243559249
 31
0.0
  0
LINE
  5
3BA
330
1F
100
AcDbEntity
  8
0
  6
Continuous
 62
     7
370
    15
100
AcDbLine
 10
-19.0502531204
 20
447.6809483305
 30
0.0
 11
-19.047844933
 21
447.6243559249
 31
0.0
  0
LINE
  5
3BB
330
1F
100
AcDbEntity
  8
0
  6
Continuous
 62
     7
370
    15
100
AcDbLine
 10
16.3043204698
 20
459.115825896
 30
0.0
 11
16.305145001
 21
459.1390439973
 31
0.0
  0
LINE
  5
3BC
330
1F
100
AcDbEntity
  8
0
  6
Continuous
 62
     7
370
    15
100
AcDbLine
 10
7.9063439222
 20
458.0434889892
 30
0.0
 11
7.9067437566
 21
458.0666528609
 31
0.0
  0
LINE
  5
3BD
330
1F
100
AcDbEntity
  8
0
  6
Continuous
 62
     7
370
    15
100
AcDbLine
 10
1.632840369
 20
459.3172534671
 30
0.0
 11
1.6329229439
 21
459.3404817548
 31
0.0
  0
LINE
  5
3BE
330
1F
100
AcDbEntity
  8
0
  6
Continuous
 62
     7
370
    15
100
AcDbLine
 10
-5.4890975964
 20
459.6407085025
 30
0.0
 11
-5.4893751874
 21
459.6639531477
 31
0.0
  0
LINE
  5
3BF
330
1F
100
AcDbEntity
  8
0
  6
Continuous
 62
     7
370
    15
100
AcDbLine
 10
-12.9596750918
 20
456.4353344216
 30
0.0
 11
-12.9603304799
 21
456.4584169668
 31
0.0
  0
LINE
  5
3C0
330
1F
100
AcDbEntity
  8
0
  6
Continuous
 62
     7
370
    15
100
AcDbLine
 10
11.8217949473
 20
456.7443222834
 30
0.0
 11
11.8223927913
 21
456.7674204545
 31
0.0
  0
LINE
  5
3C1
330
1F
100
AcDbEntity
  8
0
  6
Continuous
 62
     7
370
    15
100
AcDbLine
 10
5.6388684811
 20
456.9134769287
 30
0.0
 11
5.6391536462
 21
456.9365836542
 31
0.0
  0
LINE
  5
3C2
330
1F
100
AcDbEntity
  8
0
  6
Continuous
 62
     7
370
    15
100
AcDbLine
 10
0.7819383118
 20
457.8502385163
 30
0.0
 11
0.7819778554
 21
457.8733926151
 31
0.0
  0
LINE
  5
3C3
330
1F
100
AcDbEntity
  8
0
  6
Continuous
 62
     7
370
    15
100
AcDbLine
 10
-4.6204623648
 20
458.3648876538
 30
0.0
 11
-4.6206960278
 21
458.3880677791
 31
0.0
  0
LINE
  5
3C4
330
1F
100
AcDbEntity
  8
0
  6
Continuous
 62
     7
370
    15
100
AcDbLine
 10
-10.9680194606
 20
456.2709699107
 30
0.0
 11
-10.968574128
 21
456.2940441438
 31
0.0
  0
LINE
  5
3C5
330
1F
100
AcDbEntity
  8
0
  6
Continuous
 62
     7
370
    15
100
AcDbLine
 10
9.2518878384
 20
454.9835608076
 30
0.0
 11
9.2523557187
 21
455.0065699346
 31
0.0
  0
LINE
  5
3C6
330
1F
100
AcDbEntity
  8
0
  6
Continuous
 62
     7
370
    15
100
AcDbLine
 10
10.8465429363
 20
455.3779001551
 30
0.0
 11
10.8470914605
 21
455.4009292245
 31
0.0
  0
LINE
  5
3C7
330
1F
100
AcDbEntity
  8
0
  6
Continuous
 62
     7
370
    15
100
AcDbLine
 10
-17.1937184401
 20
451.188322802
 30
0.0
 11
-17.1945879494
 21
451.2111399988
 31
0.0
  0
LINE
  5
3C8
330
1F
100
AcDbEntity
  8
0
  6
Continuous
 62
     7
370
    15
100
AcDbLine
 10
-16.1953141128
 20
451.3044714651
 30
0.0
 11
-16.1961331315
 21
451.3272945357
 31
0.0
  0
LINE
  5
3C9
330
1F
100
AcDbEntity
  8
0
  6
Continuous
 62
     7
370
    15
100
AcDbLine
 10
-18.8678704151
 20
451.7339868501
 30
0.0
 11
-18.8688245885
 21
451.7568316419
 31
0.0
  0
LINE
  5
3CA
330
1F
100
AcDbEntity
  8
0
  6
Continuous
 62
     7
370
    15
100
AcDbLine
 10
-14.4221150067
 20
455.9745325694
 30
0.0
 11
-14.5379759935
 21
456.0366887916
 31
0.0
  0
LINE
  5
3CB
330
1F
100
AcDbEntity
  8
0
  6
Continuous
 62
     7
370
    15
100
AcDbLine
 10
-14.5379759935
 20
456.0366887916
 30
0.0
 11
-14.5387111983
 21
456.0597511767
 31
0.0
  0
LINE
  5
3CC
330
1F
100
AcDbEntity
  8
0
  6
Continuous
 62
     7
370
    15
100
AcDbLine
 10
-14.7581528279
 20
455.9342815242
 30
0.0
 11
-14.7588991675
 21
455.9573387305
 31
0.0
  0
LINE
  5
3CD
330
1F
100
AcDbEntity
  8
0
  6
Continuous
 62
     7
370
    15
100
AcDbLine
 10
-15.192361577
 20
456.0550267809
 30
0.0
 11
-15.1931298751
 21
456.0780900934
 31
0.0
  0
LINE
  5
3CE
330
1F
100
AcDbEntity
  8
0
  6
Continuous
 62
     7
370
    15
100
AcDbLine
 10
-16.2457798722
 20
456.3790624386
 30
0.0
 11
-16.2466014431
 21
456.4021421381
 31
0.0
  0
LINE
  5
3CF
330
1F
100
AcDbEntity
  8
0
  6
Continuous
 62
     7
370
    15
100
AcDbLine
 10
-17.233442686
 20
456.4753489787
 30
0.0
 11
-17.2343142043
 21
456.4984335475
 31
0.0
  0
LINE
  5
3D0
330
1F
100
AcDbEntity
  8
0
  6
Continuous
 62
     7
370
    15
100
AcDbLine
 10
-19.8701860835
 20
455.6301162467
 30
0.0
 11
-19.8711909454
 21
455.6531580709
 31
0.0
  0
LINE
  5
3D1
330
1F
100
AcDbEntity
  8
0
  6
Continuous
 62
     7
370
    15
100
AcDbLine
 10
-20.924241246
 20
453.2961029037
 30
0.0
 11
-20.9252994128
 21
453.3190266938
 31
0.0
  0
LINE
  5
3D2
330
1F
100
AcDbEntity
  8
0
  6
Continuous
 62
     7
370
    15
100
AcDbLine
 10
-20.924241246
 20
453.2961029037
 30
0.0
 11
-20.9030258694
 21
453.1015727089
 31
0.0
  0
LINE
  5
3D3
330
1F
100
AcDbEntity
  8
0
  6
Continuous
 62
     7
370
    15
100
AcDbLine
 10
-14.1802158541
 20
451.3702027539
 30
0.0
 11
-14.1809329665
 21
451.3930291486
 31
0.0
  0
LINE
  5
3D4
330
1F
100
AcDbEntity
  8
0
  6
Continuous
 62
     7
370
    15
100
AcDbLine
 10
-13.9530997498
 20
453.3052718984
 30
0.0
 11
-16.8512238301
 21
453.3052718984
 31
0.0
  0
LINE
  5
3D5
330
1F
100
AcDbEntity
  8
0
  6
Continuous
 62
     7
370
    15
100
AcDbLine
 10
-16.8512238301
 20
453.3052718984
 30
0.0
 11
-16.852076019
 21
453.3281961521
 31
0.0
  0
LINE
  5
3D6
330
1F
100
AcDbEntity
  8
0
  6
Continuous
 62
     7
370
    15
100
AcDbLine
 10
-17.05915921
 20
453.3664065935
 30
0.0
 11
-17.0600219145
 21
453.3893339389
 31
0.0
  0
LINE
  5
3D7
330
1F
100
AcDbEntity
  8
0
  6
Continuous
 62
     7
370
    15
100
AcDbLine
 10
-17.1738079319
 20
453.5926315775
 30
0.0
 11
-17.1746764344
 21
453.6155703634
 31
0.0
  0
LINE
  5
3D8
330
1F
100
AcDbEntity
  8
0
  6
Continuous
 62
     7
370
    15
100
AcDbLine
 10
-17.1738079319
 20
453.5926315775
 30
0.0
 11
-17.3175361567
 21
453.5926315775
 31
0.0
  0
LINE
  5
3D9
330
1F
100
AcDbEntity
  8
0
  6
Continuous
 62
     7
370
    15
100
AcDbLine
 10
-17.3175361567
 20
453.5926315775
 30
0.0
 11
-17.3184119277
 21
453.6155703634
 31
0.0
  0
LINE
  5
3DA
330
1F
100
AcDbEntity
  8
0
  6
Continuous
 62
     7
370
    15
100
AcDbLine
 10
-17.3175361567
 20
453.5926315775
 30
0.0
 11
-17.3175361567
 21
452.1894171697
 31
0.0
  0
LINE
  5
3DB
330
1F
100
AcDbEntity
  8
0
  6
Continuous
 62
     7
370
    15
100
AcDbLine
 10
-15.3452346039
 20
452.4539101818
 30
0.0
 11
-15.3452346039
 21
451.6224105881
 31
0.0
  0
LINE
  5
3DC
330
1F
100
AcDbEntity
  8
0
  6
Continuous
 62
     7
370
    15
100
AcDbLine
 10
-15.3452346039
 20
451.6224105881
 30
0.0
 11
-15.3460106329
 21
451.6452497373
 31
0.0
  0
LINE
  5
3DD
330
1F
100
AcDbEntity
  8
0
  6
Continuous
 62
     7
370
    15
100
AcDbLine
 10
-15.3452346039
 20
452.4539101818
 30
0.0
 11
-15.3460106329
 21
452.476791381
 31
0.0
  0
LINE
  5
3DE
330
1F
100
AcDbEntity
  8
0
  6
Continuous
 62
     7
370
    15
100
AcDbLine
 10
17.4560332907
 20
455.2632756258
 30
0.0
 11
17.4569160656
 21
455.2862988984
 31
0.0
  0
LINE
  5
3DF
330
1F
100
AcDbEntity
  8
0
  6
Continuous
 62
     7
370
    15
100
AcDbLine
 10
18.5201447142
 20
454.8628155509
 30
0.0
 11
18.5210813027
 21
454.8858185717
 31
0.0
  0
LINE
  5
3E0
330
1F
100
AcDbEntity
  8
0
  6
Continuous
 62
     7
370
    15
100
AcDbLine
 10
-11.2498756901
 20
455.2709204867
 30
0.0
 11
-13.0243660989
 21
455.2709204867
 31
0.0
  0
LINE
  5
3E1
330
1F
100
AcDbEntity
  8
0
  6
Continuous
 62
     7
370
    15
100
AcDbLine
 10
-13.0243660989
 20
455.2709204867
 30
0.0
 11
-13.0250247585
 21
455.293944146
 31
0.0
  0
LINE
  5
3E2
330
1F
100
AcDbEntity
  8
0
  6
Continuous
 62
     7
370
    15
100
AcDbLine
 10
-13.0243660989
 20
455.2709204867
 30
0.0
 11
-13.0243660989
 21
455.1683237614
 31
0.0
  0
LINE
  5
3E3
330
1F
100
AcDbEntity
  8
0
  6
Continuous
 62
     7
370
    15
100
AcDbLine
 10
-12.7387714839
 20
454.8300887405
 30
0.0
 11
-12.7369580345
 21
454.8138981177
 31
0.0
  0
LINE
  5
3E4
330
1F
100
AcDbEntity
  8
0
  6
Continuous
 62
     7
370
    15
100
AcDbLine
 10
-12.7369580345
 20
454.8138981177
 30
0.0
 11
-12.7376021595
 21
454.8368986647
 31
0.0
  0
LINE
  5
3E5
330
1F
100
AcDbEntity
  8
0
  6
Continuous
 62
     7
370
    15
100
AcDbLine
 10
-12.7369580345
 20
454.8138981177
 30
0.0
 11
-12.7369580345
 21
450.7129624437
 31
0.0
  0
LINE
  5
3E6
330
1F
100
AcDbEntity
  8
0
  6
Continuous
 62
     7
370
    15
100
AcDbLine
 10
-12.7369580345
 20
450.7129624437
 30
0.0
 11
-12.7376021595
 21
450.7357556009
 31
0.0
  0
LINE
  5
3E7
330
1F
100
AcDbEntity
  8
0
  6
Continuous
 62
     7
370
    15
100
AcDbLine
 10
-12.8026651307
 20
450.497430588
 30
0.0
 11
-12.8033125786
 21
450.5202128455
 31
0.0
  0
LINE
  5
3E8
330
1F
100
AcDbEntity
  8
0
  6
Continuous
 62
     7
370
    15
100
AcDbLine
 10
-13.0243660989
 20
450.381281925
 30
0.0
 11
-13.0250247585
 21
450.4040583086
 31
0.0
  0
LINE
  5
3E9
330
1F
100
AcDbEntity
  8
0
  6
Continuous
 62
     7
370
    15
100
AcDbLine
 10
-13.0243660989
 20
450.381281925
 30
0.0
 11
-13.0243660989
 21
450.2787101196
 31
0.0
  0
LINE
  5
3EA
330
1F
100
AcDbEntity
  8
0
  6
Continuous
 62
     7
370
    15
100
AcDbLine
 10
-11.4740560332
 20
450.5035513153
 30
0.0
 11
-11.4746362915
 21
450.5263338823
 31
0.0
  0
LINE
  5
3EB
330
1F
100
AcDbEntity
  8
0
  6
Continuous
 62
     7
370
    15
100
AcDbLine
 10
14.7238906195
 20
451.7798318234
 30
0.0
 11
14.6122417797
 21
451.8241768555
 31
0.0
  0
LINE
  5
3EC
330
1F
100
AcDbEntity
  8
0
  6
Continuous
 62
     7
370
    15
100
AcDbLine
 10
14.6122417797
 20
451.8241768555
 30
0.0
 11
14.6129807403
 21
451.8470262083
 31
0.0
  0
LINE
  5
3ED
330
1F
100
AcDbEntity
  8
0
  6
Continuous
 62
     7
370
    15
100
AcDbLine
 10
14.7238906195
 20
451.7798318234
 30
0.0
 11
14.7246352263
 21
451.8026789336
 31
0.0
  0
LINE
  5
3EE
330
1F
100
AcDbEntity
  8
0
  6
Continuous
 62
     7
370
    15
100
AcDbLine
 10
14.6122417797
 20
451.8241768555
 30
0.0
 11
14.1053128962
 21
450.6165640475
 31
0.0
  0
LINE
  5
3EF
330
1F
100
AcDbEntity
  8
0
  6
Continuous
 62
     7
370
    15
100
AcDbLine
 10
-10.3686236522
 20
450.381281925
 30
0.0
 11
-10.3686236522
 21
450.2787101196
 31
0.0
  0
LINE
  5
3F0
330
1F
100
AcDbEntity
  8
0
  6
Continuous
 62
     7
370
    15
100
AcDbLine
 10
-10.3686236522
 20
450.381281925
 30
0.0
 11
-10.3691480074
 21
450.4040583086
 31
0.0
  0
LINE
  5
3F1
330
1F
100
AcDbEntity
  8
0
  6
Continuous
 62
     7
370
    15
100
AcDbLine
 10
-4.9073381921
 20
453.9762777968
 30
0.0
 11
-4.9075863627
 21
453.9992359842
 31
0.0
  0
LINE
  5
3F2
330
1F
100
AcDbEntity
  8
0
  6
Continuous
 62
     7
370
    15
100
AcDbLine
 10
-5.9791428617
 20
455.0431713691
 30
0.0
 11
-5.979445235
 21
455.0661835107
 31
0.0
  0
LINE
  5
3F3
330
1F
100
AcDbEntity
  8
0
  6
Continuous
 62
     7
370
    15
100
AcDbLine
 10
-7.4254731412
 20
455.2709204867
 30
0.0
 11
-7.4258486573
 21
455.293944146
 31
0.0
  0
LINE
  5
3F4
330
1F
100
AcDbEntity
  8
0
  6
Continuous
 62
     7
370
    15
100
AcDbLine
 10
-7.4254731412
 20
455.2709204867
 30
0.0
 11
-10.3686236522
 21
455.2709204867
 31
0.0
  0
LINE
  5
3F5
330
1F
100
AcDbEntity
  8
0
  6
Continuous
 62
     7
370
    15
100
AcDbLine
 10
-10.3686236522
 20
455.2709204867
 30
0.0
 11
-10.3691480074
 21
455.293944146
 31
0.0
  0
LINE
  5
3F6
330
1F
100
AcDbEntity
  8
0
  6
Continuous
 62
     7
370
    15
100
AcDbLine
 10
-10.3686236522
 20
455.2709204867
 30
0.0
 11
-10.3686236522
 21
455.1683792636
 31
0.0
  0
LINE
  5
3F7
330
1F
100
AcDbEntity
  8
0
  6
Continuous
 62
     7
370
    15
100
AcDbLine
 10
-10.0826630264
 20
454.826820966
 30
0.0
 11
-10.0812155879
 21
454.8138981177
 31
0.0
  0
LINE
  5
3F8
330
1F
100
AcDbEntity
  8
0
  6
Continuous
 62
     7
370
    15
100
AcDbLine
 10
-10.0812155879
 20
454.8138981177
 30
0.0
 11
-10.0817254084
 21
454.8368986647
 31
0.0
  0
LINE
  5
3F9
330
1F
100
AcDbEntity
  8
0
  6
Continuous
 62
     7
370
    15
100
AcDbLine
 10
-10.0812155879
 20
454.8138981177
 30
0.0
 11
-10.0812155879
 21
450.7129624437
 31
0.0
  0
LINE
  5
3FA
330
1F
100
AcDbEntity
  8
0
  6
Continuous
 62
     7
370
    15
100
AcDbLine
 10
-10.0812155879
 20
450.7129624437
 30
0.0
 11
-10.0817254084
 21
450.7357556009
 31
0.0
  0
LINE
  5
3FB
330
1F
100
AcDbEntity
  8
0
  6
Continuous
 62
     7
370
    15
100
AcDbLine
 10
-10.1469226841
 20
450.497430588
 30
0.0
 11
-10.1474358275
 21
450.5202128455
 31
0.0
  0
LINE
  5
3FC
330
1F
100
AcDbEntity
  8
0
  6
Continuous
 62
     7
370
    15
100
AcDbLine
 10
-6.3185650118
 20
451.5689207539
 30
0.0
 11
-6.3188845501
 21
451.5917571981
 31
0.0
  0
LINE
  5
3FD
330
1F
100
AcDbEntity
  8
0
  6
Continuous
 62
     7
370
    15
100
AcDbLine
 10
-7.5997566173
 20
451.1653882191
 30
0.0
 11
-7.6001409472
 21
451.1882042561
 31
0.0
  0
LINE
  5
3FE
330
1F
100
AcDbEntity
  8
0
  6
Continuous
 62
     7
370
    15
100
AcDbLine
 10
-5.902694252
 20
452.7641802512
 30
0.0
 11
-5.9029927592
 21
452.7870771413
 31
0.0
  0
LINE
  5
3FF
330
1F
100
AcDbEntity
  8
0
  6
Continuous
 62
     7
370
    15
100
AcDbLine
 10
-8.8814457318
 20
451.1882042561
 30
0.0
 11
-7.6001409472
 21
451.1882042561
 31
0.0
  0
LINE
  5
400
330
1F
100
AcDbEntity
  8
0
  6
Continuous
 62
     7
370
    15
100
AcDbLine
 10
-8.880996608
 20
451.1653882191
 30
0.0
 11
-7.5997566173
 21
451.1653882191
 31
0.0
  0
LINE
  5
401
330
1F
100
AcDbEntity
  8
0
  6
Continuous
 62
     7
370
    15
100
AcDbLine
 10
-8.880996608
 20
451.1653882191
 30
0.0
 11
-8.8814457318
 21
451.1882042561
 31
0.0
  0
LINE
  5
402
330
1F
100
AcDbEntity
  8
0
  6
Continuous
 62
     7
370
    15
100
AcDbLine
 10
-8.8814457318
 20
454.3844258157
 30
0.0
 11
-8.8814457318
 21
451.1882042561
 31
0.0
  0
LINE
  5
403
330
1F
100
AcDbEntity
  8
0
  6
Continuous
 62
     7
370
    15
100
AcDbLine
 10
-7.6001409472
 20
454.3844258157
 30
0.0
 11
-8.8814457318
 21
454.3844258157
 31
0.0
  0
LINE
  5
404
330
1F
100
AcDbEntity
  8
0
  6
Continuous
 62
     7
370
    15
100
AcDbLine
 10
-0.0775279252
 20
450.5814998661
 30
0.0
 11
-0.0775318458
 21
450.6042863751
 31
0.0
  0
LINE
  5
405
330
1F
100
AcDbEntity
  8
0
  6
Continuous
 62
     7
370
    15
100
AcDbLine
 10
-0.3114461553
 20
450.381281925
 30
0.0
 11
-0.3114619056
 21
450.4040583086
 31
0.0
  0
LINE
  5
406
330
1F
100
AcDbEntity
  8
0
  6
Continuous
 62
     7
370
    15
100
AcDbLine
 10
-0.3114461553
 20
450.381281925
 30
0.0
 11
-0.3114461553
 21
450.2787101196
 31
0.0
  0
LINE
  5
407
330
1F
100
AcDbEntity
  8
0
  6
Continuous
 62
     7
370
    15
100
AcDbLine
 10
1.7969145687
 20
450.2787101196
 30
0.0
 11
1.7969145687
 21
450.381281925
 31
0.0
  0
LINE
  5
408
330
1F
100
AcDbEntity
  8
0
  6
Continuous
 62
     7
370
    15
100
AcDbLine
 10
1.7969145687
 20
450.381281925
 30
0.0
 11
1.7970054411
 21
450.4040583086
 31
0.0
  0
LINE
  5
409
330
1F
100
AcDbEntity
  8
0
  6
Continuous
 62
     7
370
    15
100
AcDbLine
 10
1.4452751566
 20
450.5494204811
 30
0.0
 11
1.4453482461
 21
450.5722053678
 31
0.0
  0
LINE
  5
40A
330
1F
100
AcDbEntity
  8
0
  6
Continuous
 62
     7
370
    15
100
AcDbLine
 10
1.0309527231
 20
451.0461670961
 30
0.0
 11
1.0310048598
 21
451.0689771039
 31
0.0
  0
LINE
  5
40B
330
1F
100
AcDbEntity
  8
0
  6
Continuous
 62
     7
370
    15
100
AcDbLine
 10
1.0309527231
 20
451.0461670961
 30
0.0
 11
0.0814900216
 21
452.36831677
 31
0.0
  0
LINE
  5
40C
330
1F
100
AcDbEntity
  8
0
  6
Continuous
 62
     7
370
    15
100
AcDbLine
 10
0.0814900216
 20
452.36831677
 30
0.0
 11
0.0814941426
 21
452.3911936407
 31
0.0
  0
LINE
  5
40D
330
1F
100
AcDbEntity
  8
0
  6
Continuous
 62
     7
370
    15
100
AcDbLine
 10
1.4926684561
 20
453.8157841016
 30
0.0
 11
1.4927439424
 21
453.8387341726
 31
0.0
  0
LINE
  5
40E
330
1F
100
AcDbEntity
  8
0
  6
Continuous
 62
     7
370
    15
100
AcDbLine
 10
0.9514316534
 20
454.971319353
 30
0.0
 11
0.9514797686
 21
454.994327861
 31
0.0
  0
LINE
  5
40F
330
1F
100
AcDbEntity
  8
0
  6
Continuous
 62
     7
370
    15
100
AcDbLine
 10
0.3505842892
 20
455.2067133316
 30
0.0
 11
0.3506020188
 21
455.2297337438
 31
0.0
  0
LINE
  5
410
330
1F
100
AcDbEntity
  8
0
  6
Continuous
 62
     7
370
    15
100
AcDbLine
 10
-0.6263853962
 20
455.2709204867
 30
0.0
 11
-0.6264170734
 21
455.293944146
 31
0.0
  0
LINE
  5
411
330
1F
100
AcDbEntity
  8
0
  6
Continuous
 62
     7
370
    15
100
AcDbLine
 10
-0.6263853962
 20
455.2709204867
 30
0.0
 11
-3.913554651
 21
455.2709204867
 31
0.0
  0
LINE
  5
412
330
1F
100
AcDbEntity
  8
0
  6
Continuous
 62
     7
370
    15
100
AcDbLine
 10
-3.913554651
 20
455.2709204867
 30
0.0
 11
-3.9137525647
 21
455.293944146
 31
0.0
  0
LINE
  5
413
330
1F
100
AcDbEntity
  8
0
  6
Continuous
 62
     7
370
    15
100
AcDbLine
 10
-3.913554651
 20
455.2709204867
 30
0.0
 11
-3.913554651
 21
455.1685141678
 31
0.0
  0
LINE
  5
414
330
1F
100
AcDbEntity
  8
0
  6
Continuous
 62
     7
370
    15
100
AcDbLine
 10
-3.6261465866
 20
454.8138981177
 30
0.0
 11
-3.6263299657
 21
454.8368986647
 31
0.0
  0
LINE
  5
415
330
1F
100
AcDbEntity
  8
0
  6
Continuous
 62
     7
370
    15
100
AcDbLine
 10
-3.6261465866
 20
454.8138981177
 30
0.0
 11
-3.6261465866
 21
450.7129624437
 31
0.0
  0
LINE
  5
416
330
1F
100
AcDbEntity
  8
0
  6
Continuous
 62
     7
370
    15
100
AcDbLine
 10
-3.6261465866
 20
450.7129624437
 30
0.0
 11
-3.6263299657
 21
450.7357556009
 31
0.0
  0
LINE
  5
417
330
1F
100
AcDbEntity
  8
0
  6
Continuous
 62
     7
370
    15
100
AcDbLine
 10
-3.6918536828
 20
450.497430588
 30
0.0
 11
-3.6920403848
 21
450.5202128455
 31
0.0
  0
LINE
  5
418
330
1F
100
AcDbEntity
  8
0
  6
Continuous
 62
     7
370
    15
100
AcDbLine
 10
9.828276486
 20
453.5269002887
 30
0.0
 11
9.8287735151
 21
453.5498357505
 31
0.0
  0
LINE
  5
419
330
1F
100
AcDbEntity
  8
0
  6
Continuous
 62
     7
370
    15
100
AcDbLine
 10
10.7288217544
 20
453.3801721818
 30
0.0
 11
10.7293643252
 21
453.4031002234
 31
0.0
  0
LINE
  5
41A
330
1F
100
AcDbEntity
  8
0
  6
Continuous
 62
     7
370
    15
100
AcDbLine
 10
9.5959065821
 20
453.8371945508
 30
0.0
 11
9.5963918599
 21
453.8601457046
 31
0.0
  0
LINE
  5
41B
330
1F
100
AcDbEntity
  8
0
  6
Continuous
 62
     7
370
    15
100
AcDbLine
 10
13.4094001139
 20
454.8232288871
 30
0.0
 11
13.3111396661
 21
454.8765569466
 31
0.0
  0
LINE
  5
41C
330
1F
100
AcDbEntity
  8
0
  6
Continuous
 62
     7
370
    15
100
AcDbLine
 10
13.3111396661
 20
454.8765569466
 30
0.0
 11
13.3118128282
 21
454.8995606623
 31
0.0
  0
LINE
  5
41D
330
1F
100
AcDbEntity
  8
0
  6
Continuous
 62
     7
370
    15
100
AcDbLine
 10
13.1276871953
 20
454.7771979465
 30
0.0
 11
13.12835108
 21
454.8001966376
 31
0.0
  0
LINE
  5
41E
330
1F
100
AcDbEntity
  8
0
  6
Continuous
 62
     7
370
    15
100
AcDbLine
 10
18.7754975862
 20
454.7771979465
 30
0.0
 11
18.7764470882
 21
454.8001966376
 31
0.0
  0
LINE
  5
41F
330
1F
100
AcDbEntity
  8
0
  6
Continuous
 62
     7
370
    15
100
AcDbLine
 10
16.4943533271
 20
455.3779001551
 30
0.0
 11
16.4951874686
 21
455.4009292245
 31
0.0
  0
LINE
  5
420
330
1F
100
AcDbEntity
  8
0
  6
Continuous
 62
     7
370
    15
100
AcDbLine
 10
14.8996982292
 20
454.9835608076
 30
0.0
 11
14.9004517269
 21
455.0065699346
 31
0.0
  0
LINE
  5
421
330
1F
100
AcDbEntity
  8
0
  6
Continuous
 62
     7
370
    15
100
AcDbLine
 10
6.3530581669
 20
451.7569214331
 30
0.0
 11
6.3533794496
 21
451.7797673847
 31
0.0
  0
LINE
  5
422
330
1F
100
AcDbEntity
  8
0
  6
Continuous
 62
     7
370
    15
100
AcDbLine
 10
6.1023018885
 20
451.3885407431
 30
0.0
 11
6.1026104901
 21
451.4113680652
 31
0.0
  0
LINE
  5
423
330
1F
100
AcDbEntity
  8
0
  6
Continuous
 62
     7
370
    15
100
AcDbLine
 10
5.0397145987
 20
451.0981327966
 30
0.0
 11
5.0399694638
 21
451.1209454324
 31
0.0
  0
LINE
  5
424
330
1F
100
AcDbEntity
  8
0
  6
Continuous
 62
     7
370
    15
100
AcDbLine
 10
3.9786514426
 20
451.3885407431
 30
0.0
 11
3.9788526483
 21
451.4113680652
 31
0.0
  0
LINE
  5
425
330
1F
100
AcDbEntity
  8
0
  6
Continuous
 62
     7
370
    15
100
AcDbLine
 10
3.7202744958
 20
451.7569214331
 30
0.0
 11
3.720462635
 21
451.7797673847
 31
0.0
  0
LINE
  5
426
330
1F
100
AcDbEntity
  8
0
  6
Continuous
 62
     7
370
    15
100
AcDbLine
 10
3.6468741534
 20
452.4004203475
 30
0.0
 11
3.6470585807
 21
452.4232988418
 31
0.0
  0
LINE
  5
427
330
1F
100
AcDbEntity
  8
0
  6
Continuous
 62
     7
370
    15
100
AcDbLine
 10
3.6468741534
 20
452.4004203475
 30
0.0
 11
3.6468741534
 21
454.8138981177
 31
0.0
  0
LINE
  5
428
330
1F
100
AcDbEntity
  8
0
  6
Continuous
 62
     7
370
    15
100
AcDbLine
 10
3.6468741534
 20
454.8138981177
 30
0.0
 11
3.6470585807
 21
454.8368986647
 31
0.0
  0
LINE
  5
429
330
1F
100
AcDbEntity
  8
0
  6
Continuous
 62
     7
370
    15
100
AcDbLine
 10
3.9373546777
 20
455.1685243462
 30
0.0
 11
3.9373546777
 21
455.2709204867
 31
0.0
  0
LINE
  5
42A
330
1F
100
AcDbEntity
  8
0
  6
Continuous
 62
     7
370
    15
100
AcDbLine
 10
3.9373546777
 20
455.2709204867
 30
0.0
 11
3.937553795
 21
455.293944146
 31
0.0
  0
LINE
  5
42B
330
1F
100
AcDbEntity
  8
0
  6
Continuous
 62
     7
370
    15
100
AcDbLine
 10
3.9373546777
 20
455.2709204867
 30
0.0
 11
2.1593563052
 21
455.2709204867
 31
0.0
  0
LINE
  5
42C
330
1F
100
AcDbEntity
  8
0
  6
Continuous
 62
     7
370
    15
100
AcDbLine
 10
18.9390879339
 20
452.5395035935
 30
0.0
 11
18.9400457089
 21
452.5623891213
 31
0.0
  0
LINE
  5
42D
330
1F
100
AcDbEntity
  8
0
  6
Continuous
 62
     7
370
    15
100
AcDbLine
 10
19.1592405758
 20
451.7829042833
 30
0.0
 11
19.1602094842
 21
451.8057515489
 31
0.0
  0
LINE
  5
42E
330
1F
100
AcDbEntity
  8
0
  6
Continuous
 62
     7
370
    15
100
AcDbLine
 10
7.5226493178
 20
452.1589056416
 30
0.0
 11
7.5230297482
 21
452.1817719221
 31
0.0
  0
LINE
  5
42F
330
1F
100
AcDbEntity
  8
0
  6
Continuous
 62
     7
370
    15
100
AcDbLine
 10
7.5226493178
 20
452.1589056416
 30
0.0
 11
7.5226493178
 21
454.8138981177
 31
0.0
  0
LINE
  5
430
330
1F
100
AcDbEntity
  8
0
  6
Continuous
 62
     7
370
    15
100
AcDbLine
 10
7.5226493178
 20
454.8138981177
 30
0.0
 11
7.5230297482
 21
454.8368986647
 31
0.0
  0
LINE
  5
431
330
1F
100
AcDbEntity
  8
0
  6
Continuous
 62
     7
370
    15
100
AcDbLine
 10
12.8723343233
 20
454.8628155509
 30
0.0
 11
12.8729852945
 21
454.8858185717
 31
0.0
  0
LINE
  5
432
330
1F
100
AcDbEntity
  8
0
  6
Continuous
 62
     7
370
    15
100
AcDbLine
 10
11.8082228998
 20
455.2632756258
 30
0.0
 11
11.8088200574
 21
455.2862988984
 31
0.0
  0
LINE
  5
433
330
1F
100
AcDbEntity
  8
0
  6
Continuous
 62
     7
370
    15
100
AcDbLine
 10
19.057433464
 20
454.8231078822
 30
0.0
 11
18.9589500569
 21
454.8765569466
 31
0.0
  0
LINE
  5
434
330
1F
100
AcDbEntity
  8
0
  6
Continuous
 62
     7
370
    15
100
AcDbLine
 10
18.9589500569
 20
454.8765569466
 30
0.0
 11
18.9599088364
 21
454.8995606623
 31
0.0
  0
LINE
  5
435
330
1F
100
AcDbEntity
  8
0
  6
Continuous
 62
     7
370
    15
100
AcDbLine
 10
11.4366971722
 20
453.3266823476
 30
0.0
 11
11.4372755412
 21
453.3496076841
 31
0.0
  0
LINE
  5
436
330
1F
100
AcDbEntity
  8
0
  6
Continuous
 62
     7
370
    15
100
AcDbLine
 10
12.8478997993
 20
452.968994786
 30
0.0
 11
12.8485495348
 21
452.9919020338
 31
0.0
  0
LINE
  5
437
330
1F
100
AcDbEntity
  8
0
  6
Continuous
 62
     7
370
    15
100
AcDbLine
 10
11.8800991085
 20
451.1837262084
 30
0.0
 11
11.880699901
 21
451.2065431727
 31
0.0
  0
LINE
  5
438
330
1F
100
AcDbEntity
  8
0
  6
Continuous
 62
     7
370
    15
100
AcDbLine
 10
11.0300195996
 20
451.0583843581
 30
0.0
 11
11.0305774024
 21
451.0811949837
 31
0.0
  0
LINE
  5
439
330
1F
100
AcDbEntity
  8
0
  6
Continuous
 62
     7
370
    15
100
AcDbLine
 10
9.9414010743
 20
451.2036125239
 30
0.0
 11
9.9419038243
 21
451.226430494
 31
0.0
  0
LINE
  5
43A
330
1F
100
AcDbEntity
  8
0
  6
Continuous
 62
     7
370
    15
100
AcDbLine
 10
9.166270234
 20
451.545986171
 30
0.0
 11
9.1667337846
 21
451.5688214553
 31
0.0
  0
LINE
  5
43B
330
1F
100
AcDbEntity
  8
0
  6
Continuous
 62
     7
370
    15
100
AcDbLine
 10
9.0760802287
 20
451.7431558448
 30
0.0
 11
9.0765392182
 21
451.7660011002
 31
0.0
  0
LINE
  5
43C
330
1F
100
AcDbEntity
  8
0
  6
Continuous
 62
     7
370
    15
100
AcDbLine
 10
9.0760802287
 20
451.7431558448
 30
0.0
 11
9.0760802287
 21
451.7798318234
 31
0.0
  0
LINE
  5
43D
330
1F
100
AcDbEntity
  8
0
  6
Continuous
 62
     7
370
    15
100
AcDbLine
 10
9.0760802287
 20
451.7798318234
 30
0.0
 11
9.0765392182
 21
451.8026789336
 31
0.0
  0
LINE
  5
43E
330
1F
100
AcDbEntity
  8
0
  6
Continuous
 62
     7
370
    15
100
AcDbLine
 10
9.0760802287
 20
451.7798318234
 30
0.0
 11
8.9644313888
 21
451.8241768555
 31
0.0
  0
LINE
  5
43F
330
1F
100
AcDbEntity
  8
0
  6
Continuous
 62
     7
370
    15
100
AcDbLine
 10
8.9644313888
 20
451.8241768555
 30
0.0
 11
8.9648847321
 21
451.8470262083
 31
0.0
  0
LINE
  5
440
330
1F
100
AcDbEntity
  8
0
  6
Continuous
 62
     7
370
    15
100
AcDbLine
 10
8.9644313888
 20
451.8241768555
 30
0.0
 11
8.4574617014
 21
450.6164668438
 31
0.0
  0
LINE
  5
441
330
1F
100
AcDbEntity
  8
0
  6
Continuous
 62
     7
370
    15
100
AcDbLine
 10
18.4957101902
 20
452.968994786
 30
0.0
 11
18.496645543
 21
452.9919020338
 31
0.0
  0
LINE
  5
442
330
1F
100
AcDbEntity
  8
0
  6
Continuous
 62
     7
370
    15
100
AcDbLine
 10
13.511430185
 20
451.7829042833
 30
0.0
 11
13.5121134761
 21
451.8057515489
 31
0.0
  0
LINE
  5
443
330
1F
100
AcDbEntity
  8
0
  6
Continuous
 62
     7
370
    15
100
AcDbLine
 10
13.2912775431
 20
452.5395035935
 30
0.0
 11
13.2919497008
 21
452.5623891213
 31
0.0
  0
LINE
  5
444
330
1F
100
AcDbEntity
  8
0
  6
Continuous
 62
     7
370
    15
100
AcDbLine
 10
11.4366971722
 20
453.3266823476
 30
0.0
 11
10.7288217544
 21
453.3801721818
 31
0.0
  0
LINE
  5
445
330
1F
100
AcDbEntity
  8
0
  6
Continuous
 62
     7
370
    15
100
AcDbLine
 10
17.084507563
 20
453.3266823476
 30
0.0
 11
17.0853715494
 21
453.3496076841
 31
0.0
  0
LINE
  5
446
330
1F
100
AcDbEntity
  8
0
  6
Continuous
 62
     7
370
    15
100
AcDbLine
 10
15.4760868769
 20
453.5269002887
 30
0.0
 11
15.4768695233
 21
453.5498357505
 31
0.0
  0
LINE
  5
447
330
1F
100
AcDbEntity
  8
0
  6
Continuous
 62
     7
370
    15
100
AcDbLine
 10
16.3766321452
 20
453.3801721818
 30
0.0
 11
16.3774603334
 21
453.4031002234
 31
0.0
  0
LINE
  5
448
330
1F
100
AcDbEntity
  8
0
  6
Continuous
 62
     7
370
    15
100
AcDbLine
 10
15.243716973
 20
453.8371945508
 30
0.0
 11
15.2444878681
 21
453.8601457046
 31
0.0
  0
LINE
  5
449
330
1F
100
AcDbEntity
  8
0
  6
Continuous
 62
     7
370
    15
100
AcDbLine
 10
15.5892114652
 20
451.2036125239
 30
0.0
 11
15.5899998324
 21
451.226430494
 31
0.0
  0
LINE
  5
44A
330
1F
100
AcDbEntity
  8
0
  6
Continuous
 62
     7
370
    15
100
AcDbLine
 10
16.6778299905
 20
451.0583843581
 30
0.0
 11
16.6786734106
 21
451.0811949837
 31
0.0
  0
LINE
  5
44B
330
1F
100
AcDbEntity
  8
0
  6
Continuous
 62
     7
370
    15
100
AcDbLine
 10
14.7238906195
 20
451.7431558448
 30
0.0
 11
14.7246352263
 21
451.7660011002
 31
0.0
  0
LINE
  5
44C
330
1F
100
AcDbEntity
  8
0
  6
Continuous
 62
     7
370
    15
100
AcDbLine
 10
14.8140806249
 20
451.545986171
 30
0.0
 11
14.8148297928
 21
451.5688214553
 31
0.0
  0
LINE
  5
44D
330
1F
100
AcDbEntity
  8
0
  6
Continuous
 62
     7
370
    15
100
AcDbLine
 10
14.7238906195
 20
451.7431558448
 30
0.0
 11
14.7238906195
 21
451.7798318234
 31
0.0
  0
LINE
  5
44E
330
1F
100
AcDbEntity
  8
0
  6
Continuous
 62
     7
370
    15
100
AcDbLine
 10
17.5279094994
 20
451.1837262084
 30
0.0
 11
17.5287959092
 21
451.2065431727
 31
0.0
  0
LINE
  5
44F
330
1F
100
AcDbEntity
  8
0
  6
Continuous
 62
     7
370
    15
100
AcDbLine
 10
17.084507563
 20
453.3266823476
 30
0.0
 11
16.3766321452
 21
453.3801721818
 31
0.0
  0
LINE
  5
450
330
1F
100
AcDbEntity
  8
0
  6
Continuous
 62
     7
370
    15
100
AcDbLine
 10
-25.9743339995
 20
467.5380119912
 30
0.0
 11
-25.9743339995
 21
-467.5380119912
 31
0.0
  0
LINE
  5
451
330
1F
100
AcDbEntity
  8
0
  6
Continuous
 62
     7
370
    15
100
AcDbLine
 10
25.9743339995
 20
467.5380119912
 30
0.0
 11
-25.9743339995
 21
467.5380119912
 31
0.0
  0
LINE
  5
452
330
1F
100
AcDbEntity
  8
0
  6
Continuous
 62
     7
370
    15
100
AcDbLine
 10
25.9743339995
 20
-467.5380119912
 30
0.0
 11
25.9743339995
 21
467.5380119912
 31
0.0
  0
LINE
  5
453
330
1F
100
AcDbEntity
  8
0
  6
Continuous
 62
     7
370
    15
100
AcDbLine
 10
-25.9743339995
 20
-467.5380119912
 30
0.0
 11
25.9743339995
 21
-467.5380119912
 31
0.0
  0
ARC
  5
454
330
1F
100
AcDbEntity
  8
0
  6
Continuous
 62
     7
370
    15
100
AcDbCircle
 10
19.0502531204
 20
460.6697572762
 30
0.0
 40
2.597761789151718
100
AcDbArc
 50
0.0
 51
90.0
  0
ARC
  5
455
330
1F
100
AcDbEntity
  8
0
  6
Continuous
 62
     7
370
    15
100
AcDbCircle
 10
19.0502531204
 20
450.2787101196
 30
0.0
 40
2.597761789151946
100
AcDbArc
 50
270.0
 51
360.0
  0
ARC
  5
456
330
1F
100
AcDbEntity
  8
0
  6
Continuous
 62
     7
370
    15
100
AcDbCircle
 10
-19.0502531204
 20
450.2787101196
 30
0.0
 40
2.597761789151889
100
AcDbArc
 50
180.0
 51
270.0
  0
ARC
  5
457
330
1F
100
AcDbEntity
  8
0
  6
Continuous
 62
     7
370
    15
100
AcDbCircle
 10
-19.0502531204
 20
460.6697572762
 30
0.0
 40
2.597761789151903
100
AcDbArc
 50
90.0
 51
180.0
  0
ARC
  5
458
330
1F
100
AcDbEntity
  8
0
  6
Continuous
 62
     7
370
    15
100
AcDbCircle
 10
19.047844933
 20
450.2217893248
 30
0.0
 40
2.597433399951062
100
AcDbArc
 50
270.0
 51
357.2471335772
  0
ARC
  5
459
330
1F
100
AcDbEntity
  8
0
  6
Continuous
 62
     7
370
    15
100
AcDbCircle
 10
-19.047844933
 20
450.2217893248
 30
0.0
 40
2.597433399950945
100
AcDbArc
 50
182.7528664228
 51
270.0
  0
ARC
  5
45A
330
1F
100
AcDbEntity
  8
0
  6
Continuous
 62
     7
370
    15
100
AcDbCircle
 10
-245.7974250743
 20
-8.5849834791
 30
0.0
 40
306.1235954304054
100
AcDbArc
 50
357.3789776523
 51
2.62604792
  0
ARC
  5
45B
330
1F
100
AcDbEntity
  8
0
  6
Continuous
 62
     7
370
    15
100
AcDbCircle
 10
-254.2690023037
 20
-8.5852457086
 30
0.0
 40
314.1736501914765
100
AcDbArc
 50
357.3675936548
 51
2.637395668
  0
ARC
  5
45C
330
1F
100
AcDbEntity
  8
0
  6
Continuous
 62
     7
370
    15
100
AcDbCircle
 10
-256.7320322434
 20
206.0472844184
 30
0.0
 40
316.6354542696827
100
AcDbArc
 50
357.3212330722
 51
2.5594530211
  0
ARC
  5
45D
330
1F
100
AcDbEntity
  8
0
  6
Continuous
 62
     7
370
    15
100
AcDbCircle
 10
177.4570374559
 20
417.7120475059
 30
0.0
 40
237.3156173167124
100
AcDbArc
 50
179.0180973372
 51
182.96026469
  0
ARC
  5
45E
330
1F
100
AcDbEntity
  8
0
  6
Continuous
 62
     7
370
    15
100
AcDbCircle
 10
116.6365754377
 20
425.123861394
 30
0.0
 40
176.4920091888827
100
AcDbArc
 50
176.9356528307
 51
181.0859851421
  0
ARC
  5
45F
330
1F
100
AcDbEntity
  8
0
  6
Continuous
 62
     7
370
    15
100
AcDbCircle
 10
110.9049032528
 20
425.0084442326
 30
0.0
 40
171.1829268613399
100
AcDbArc
 50
176.9474315406
 51
181.0987753374
  0
ARC
  5
460
330
1F
100
AcDbEntity
  8
0
  6
Continuous
 62
     7
370
    15
100
AcDbCircle
 10
168.5348937173
 20
417.7233348543
 30
0.0
 40
228.8164493888957
100
AcDbArc
 50
178.9977221126
 51
182.9644576376
  0
ARC
  5
461
330
1F
100
AcDbEntity
  8
0
  6
Continuous
 62
     7
370
    15
100
AcDbCircle
 10
-255.6375830151
 20
-137.3645345111
 30
0.0
 40
315.5413943219989
100
AcDbArc
 50
357.4142823628
 51
2.6654194641
  0
ARC
  5
462
330
1F
100
AcDbEntity
  8
0
  6
Continuous
 62
     7
370
    15
100
AcDbCircle
 10
-257.898839129
 20
-266.1449546188
 30
0.0
 40
317.8019527449517
100
AcDbArc
 50
357.4642454351
 51
2.6894988347
  0
ARC
  5
463
330
1F
100
AcDbEntity
  8
0
  6
Continuous
 62
     7
370
    15
100
AcDbCircle
 10
-259.5753582729
 20
-394.9235717301
 30
0.0
 40
319.4794387450585
100
AcDbArc
 50
357.5050157093
 51
2.7214916268
  0
ARC
  5
464
330
1F
100
AcDbEntity
  8
0
  6
Continuous
 62
     7
370
    15
100
AcDbCircle
 10
113.7488669224
 20
-77.2186339673
 30
0.0
 40
173.6199101878735
100
AcDbArc
 50
178.6623871053
 51
183.3303446008
  0
ARC
  5
465
330
1F
100
AcDbEntity
  8
0
  6
Continuous
 62
     7
370
    15
100
AcDbCircle
 10
171.3675832226
 20
-69.8075098446
 30
0.0
 40
231.2157039092827
100
AcDbArc
 50
177.1750680566
 51
180.8322002373
  0
ARC
  5
466
330
1F
100
AcDbEntity
  8
0
  6
Continuous
 62
     7
370
    15
100
AcDbCircle
 10
123.4615129854
 20
-69.1608561142
 30
0.0
 40
183.751507739379
100
AcDbArc
 50
176.7810648448
 51
181.2459913623
  0
ARC
  5
467
330
1F
100
AcDbEntity
  8
0
  6
Continuous
 62
     7
370
    15
100
AcDbCircle
 10
146.5653631807
 20
-76.4587784634
 30
0.0
 40
206.8382726748926
100
AcDbArc
 50
179.0852106805
 51
182.8862570774
  0
ARC
  5
468
330
1F
100
AcDbEntity
  8
0
  6
Continuous
 62
     7
370
    15
100
AcDbCircle
 10
-256.6561691961
 20
-201.7546031201
 30
0.0
 40
316.5596143985904
100
AcDbArc
 50
357.4388792703
 51
2.6779662546
  0
ARC
  5
469
330
1F
100
AcDbEntity
  8
0
  6
Continuous
 62
     7
370
    15
100
AcDbCircle
 10
-253.8051427495
 20
98.7299644749
 30
0.0
 40
313.7105941160249
100
AcDbArc
 50
357.331456188
 51
2.6112137444
  0
ARC
  5
46A
330
1F
100
AcDbEntity
  8
0
  6
Continuous
 62
     7
370
    15
100
AcDbCircle
 10
-246.048965297
 20
98.7273100469
 30
0.0
 40
306.3751708493596
100
AcDbArc
 50
357.3486684468
 51
2.5935849621
  0
ARC
  5
46B
330
1F
100
AcDbEntity
  8
0
  6
Continuous
 62
     7
370
    15
100
AcDbCircle
 10
-262.1488625689
 20
206.055597084
 30
0.0
 40
322.4600214718664
100
AcDbArc
 50
357.4448864039
 51
2.434932855
  0
ARC
  5
46C
330
1F
100
AcDbEntity
  8
0
  6
Continuous
 62
     7
370
    15
100
AcDbCircle
 10
-259.3665077153
 20
-330.5355890683
 30
0.0
 40
319.2693238852967
100
AcDbArc
 50
357.4903290871
 51
2.6999935322
  0
ARC
  5
46D
330
1F
100
AcDbEntity
  8
0
  6
Continuous
 62
     7
370
    15
100
AcDbCircle
 10
-251.6698452427
 20
-394.912864112
 30
0.0
 40
311.9947086554583
100
AcDbArc
 50
357.5229251437
 51
2.7052276477
  0
ARC
  5
46E
330
1F
100
AcDbEntity
  8
0
  6
Continuous
 62
     7
370
    15
100
AcDbCircle
 10
-264.7731155064
 20
-330.5488614587
 30
0.0
 40
325.0837752468382
100
AcDbArc
 50
357.6139803576
 51
2.5777249081
  0
ARC
  5
46F
330
1F
100
AcDbEntity
  8
0
  6
Continuous
 62
     7
370
    15
100
AcDbCircle
 10
-263.4660338735
 20
-266.1558798981
 30
0.0
 40
323.7767887809557
100
AcDbArc
 50
357.5895729601
 51
2.5652882594
  0
ARC
  5
470
330
1F
100
AcDbEntity
  8
0
  6
Continuous
 62
     7
370
    15
100
AcDbCircle
 10
-262.3871324961
 20
-201.7630659244
 30
0.0
 40
322.6980139076679
100
AcDbArc
 50
357.5658502991
 51
2.5518441282
  0
ARC
  5
471
330
1F
100
AcDbEntity
  8
0
  6
Continuous
 62
     7
370
    15
100
AcDbCircle
 10
-246.2861317875
 20
-137.359735766
 30
0.0
 40
306.6123704717868
100
AcDbArc
 50
357.4186963115
 51
2.6615845733
  0
ARC
  5
472
330
1F
100
AcDbEntity
  8
0
  6
Continuous
 62
     7
370
    15
100
AcDbCircle
 10
-261.8009834459
 20
420.682952767
 30
0.0
 40
321.7034395518783
100
AcDbArc
 50
357.2870947873
 51
2.4720501127
  0
ARC
  5
473
330
1F
100
AcDbEntity
  8
0
  6
Continuous
 62
     7
370
    15
100
AcDbCircle
 10
-252.5599458095
 20
420.6687725285
 30
0.0
 40
312.8845374803502
100
AcDbArc
 50
357.2926421407
 51
2.4647531055
  0
ARC
  5
474
330
1F
100
AcDbEntity
  8
0
  6
Continuous
 62
     7
370
    15
100
AcDbCircle
 10
-258.953077871
 20
313.3647255454
 30
0.0
 40
318.8559700482353
100
AcDbArc
 50
357.3027023772
 51
2.5166937208
  0
ARC
  5
475
330
1F
100
AcDbEntity
  8
0
  6
Continuous
 62
     7
370
    15
100
AcDbCircle
 10
-264.7272008703
 20
313.3778992338
 30
0.0
 40
325.0375784118922
100
AcDbArc
 50
357.4279740388
 51
2.3901100048
  0
ARC
  5
476
330
1F
100
AcDbEntity
  8
0
  6
Continuous
 62
     7
370
    15
100
AcDbCircle
 10
60.6611402938
 20
-398.2193525293
 30
0.0
 40
120.4497128275044
100
AcDbArc
 50
178.7173694738
 51
183.2627266693
  0
ARC
  5
477
330
1F
100
AcDbEntity
  8
0
  6
Continuous
 62
     7
370
    15
100
AcDbCircle
 10
119.1436922035
 20
-392.6036838076
 30
0.0
 40
178.9259049060892
100
AcDbArc
 50
177.0849807381
 51
180.9349231188
  0
ARC
  5
478
330
1F
100
AcDbEntity
  8
0
  6
Continuous
 62
     7
370
    15
100
AcDbCircle
 10
109.9759776254
 20
-392.6197280283
 30
0.0
 40
170.1806615526281
100
AcDbArc
 50
177.0755053227
 51
180.9608515027
  0
ARC
  5
479
330
1F
100
AcDbEntity
  8
0
  6
Continuous
 62
     7
370
    15
100
AcDbCircle
 10
66.0624730338
 20
-397.9039694182
 30
0.0
 40
126.2666205894757
100
AcDbArc
 50
178.8970747029
 51
183.0586902553
  0
ARC
  5
47A
330
1F
100
AcDbEntity
  8
0
  6
Continuous
 62
     8
370
    15
100
AcDbCircle
 10
82.2145056587
 20
-468.6128766554
 30
0.0
 40
108.1941789591464
100
AcDbArc
 50
179.4307806346
 51
181.4295488128
  0
ARC
  5
47B
330
1F
100
AcDbEntity
  8
0
  6
Continuous
 62
     8
370
    15
100
AcDbCircle
 10
82.1845118401
 20
468.6129720082
 30
0.0
 40
108.1641875687226
100
AcDbArc
 50
178.5701053553
 51
180.5694277137
  0
ARC
  5
47C
330
1F
100
AcDbEntity
  8
0
  6
Continuous
 62
     8
370
    15
100
AcDbCircle
 10
-82.2698338012
 20
468.6127007588
 30
0.0
 40
108.249502626164
100
AcDbArc
 50
359.4311646637
 51
1.4289112602
  0
ARC
  5
47D
330
1F
100
AcDbEntity
  8
0
  6
Continuous
 62
     8
370
    15
100
AcDbCircle
 10
-82.2698338012
 20
-468.6127007588
 30
0.0
 40
108.2495026261413
100
AcDbArc
 50
358.5710887398
 51
0.5688353363
  0
ARC
  5
47E
330
1F
100
AcDbEntity
  8
0
  6
Continuous
 62
     8
370
    15
100
AcDbCircle
 10
-244.7863665107
 20
-399.3027435274
 30
0.0
 40
282.680200437402
100
AcDbArc
 50
358.0683485411
 51
0.6784332159
  0
ARC
  5
47F
330
1F
100
AcDbEntity
  8
0
  6
Continuous
 62
     8
370
    15
100
AcDbCircle
 10
-330.9054554873
 20
-391.8875146885
 30
0.0
 40
368.8019104790341
100
AcDbArc
 50
359.3679780906
 51
1.8853098568
  0
ARC
  5
480
330
1F
100
AcDbEntity
  8
0
  6
Continuous
 62
     8
370
    15
100
AcDbCircle
 10
-267.7804578497
 20
94.9206326001
 30
0.0
 40
305.6815484522226
100
AcDbArc
 50
357.9759397285
 51
0.7625646535
  0
ARC
  5
481
330
1F
100
AcDbEntity
  8
0
  6
Continuous
 62
     8
370
    15
100
AcDbCircle
 10
-294.1752461581
 20
102.350701275
 30
0.0
 40
332.0662810722438
100
AcDbArc
 50
359.4199356705
 51
1.841602899
  0
ARC
  5
482
330
1F
100
AcDbEntity
  8
0
  6
Continuous
 62
     8
370
    15
100
AcDbCircle
 10
459.0707441222
 20
-72.9745250955
 30
0.0
 40
496.9957295296755
100
AcDbArc
 50
178.320951248
 51
181.6522716048
  0
ARC
  5
483
330
1F
100
AcDbEntity
  8
0
  6
Continuous
 62
     8
370
    15
100
AcDbCircle
 10
-194.4449723954
 20
-335.411946427
 30
0.0
 40
232.3536691043355
100
AcDbArc
 50
357.7545285944
 51
0.9899288353
  0
ARC
  5
484
330
1F
100
AcDbEntity
  8
0
  6
Continuous
 62
     8
370
    15
100
AcDbCircle
 10
-315.8895626806
 20
-327.3250796929
 30
0.0
 40
353.7870212110395
100
AcDbArc
 50
359.3404327476
 51
1.9160786673
  0
ARC
  5
485
330
1F
100
AcDbEntity
  8
0
  6
Continuous
 62
     8
370
    15
100
AcDbCircle
 10
-247.6900568753
 20
-12.6675606244
 30
0.0
 40
285.5929317868741
100
AcDbArc
 50
357.9237156614
 51
0.814512196
  0
ARC
  5
486
330
1F
100
AcDbEntity
  8
0
  6
Continuous
 62
     8
370
    15
100
AcDbCircle
 10
-314.2636051854
 20
-5.2463034938
 30
0.0
 40
352.1536658632451
100
AcDbArc
 50
359.4530837963
 51
1.8091709469
  0
ARC
  5
487
330
1F
100
AcDbEntity
  8
0
  6
Continuous
 62
     8
370
    15
100
AcDbCircle
 10
-204.288276612
 20
-270.8654210688
 30
0.0
 40
242.1957540810492
100
AcDbArc
 50
357.7899093397
 51
0.952408571
  0
ARC
  5
488
330
1F
100
AcDbEntity
  8
0
  6
Continuous
 62
     8
370
    15
100
AcDbCircle
 10
-301.8653555514
 20
-262.76637459
 30
0.0
 40
339.7637902940048
100
AcDbArc
 50
359.3130872403
 51
1.9453594901
  0
ARC
  5
489
330
1F
100
AcDbEntity
  8
0
  6
Continuous
 62
     8
370
    15
100
AcDbCircle
 10
-312.1490746527
 20
310.1095212433
 30
0.0
 40
350.0467847857585
100
AcDbArc
 50
358.0764033903
 51
0.6666307389
  0
ARC
  5
48A
330
1F
100
AcDbEntity
  8
0
  6
Continuous
 62
     8
370
    15
100
AcDbCircle
 10
-257.5276176135
 20
317.5356020797
 30
0.0
 40
295.420668370508
100
AcDbArc
 50
359.3496036152
 51
1.9068914955
  0
ARC
  5
48B
330
1F
100
AcDbEntity
  8
0
  6
Continuous
 62
     8
370
    15
100
AcDbCircle
 10
-225.1493635418
 20
-141.7689540227
 30
0.0
 40
263.0544866867547
100
AcDbArc
 50
357.8582362863
 51
0.8811298331
  0
ARC
  5
48C
330
1F
100
AcDbEntity
  8
0
  6
Continuous
 62
     8
370
    15
100
AcDbCircle
 10
-340.1503907054
 20
-134.3674392601
 30
0.0
 40
378.0393068791856
100
AcDbArc
 50
359.4913172761
 51
1.7700072723
  0
ARC
  5
48D
330
1F
100
AcDbEntity
  8
0
  6
Continuous
 62
     8
370
    15
100
AcDbCircle
 10
469.7400480659
 20
420.6824164025
 30
0.0
 40
507.6639772543622
100
AcDbArc
 50
178.4337080592
 51
181.7187056321
  0
ARC
  5
48E
330
1F
100
AcDbEntity
  8
0
  6
Continuous
 62
     8
370
    15
100
AcDbCircle
 10
-214.4882865833
 20
-206.3179237897
 30
0.0
 40
252.3945793164976
100
AcDbArc
 50
357.8242386813
 51
0.916300964
  0
ARC
  5
48F
330
1F
100
AcDbEntity
  8
0
  6
Continuous
 62
     8
370
    15
100
AcDbCircle
 10
-288.326825544
 20
-198.2090128065
 30
0.0
 40
326.2262658523594
100
AcDbArc
 50
359.2846900334
 51
1.9753394501
  0
ARC
  5
490
330
1F
100
AcDbEntity
  8
0
  6
Continuous
 62
     8
370
    15
100
AcDbCircle
 10
-289.2175694804
 20
202.5128104582
 30
0.0
 40
327.116941407665
100
AcDbArc
 50
358.0266972682
 51
0.7133741196
  0
ARC
  5
491
330
1F
100
AcDbEntity
  8
0
  6
Continuous
 62
     8
370
    15
100
AcDbCircle
 10
-275.3249075259
 20
209.9444506966
 30
0.0
 40
313.2169355987337
100
AcDbArc
 50
359.3855550049
 51
1.8739648442
  0
ARC
  5
492
330
1F
100
AcDbEntity
  8
0
  6
Continuous
 62
     8
370
    15
100
AcDbCircle
 10
-336.5136935167
 20
417.7102906322
 30
0.0
 40
374.4098169560584
100
AcDbArc
 50
358.1244369211
 51
0.622619038
  0
ARC
  5
493
330
1F
100
AcDbEntity
  8
0
  6
Continuous
 62
     8
370
    15
100
AcDbCircle
 10
-240.8576240776
 20
425.1237476323
 30
0.0
 40
278.7517110186645
100
AcDbArc
 50
359.3124551434
 51
1.9396642836
  0
ARC
  5
494
330
1F
100
AcDbEntity
  8
0
  6
Continuous
 62
     8
370
    15
100
AcDbCircle
 10
345.3287145255
 20
-394.7673867529
 30
0.0
 40
383.1954564039265
100
AcDbArc
 50
178.3157121263
 51
181.5413448814
  0
ENDSEC
  0
SECTION
  2
OBJECTS
  0
DICTIONARY
  5
C
330
0
100
AcDbDictionary
281
     1
  3
ACAD_GROUP
350
D
  3
ACAD_LAYOUT
350
1A
  3
ACAD_MLINESTYLE
350
17
  3
ACAD_PLOTSETTINGS
350
19
  3
ACAD_PLOTSTYLENAME
350
E
  3
ACAD_SCALELIST
350
47
  0
DICTIONARY
  5
D
102
{ACAD_REACTORS
330
C
102
}
330
C
100
AcDbDictionary
281
     1
  0
DICTIONARY
  5
1A
102
{ACAD_REACTORS
330
C
102
}
330
C
100
AcDbDictionary
281
     1
  3
Layout1
350
1E
  3
Layout2
350
26
  3
Model
350
22
  0
DICTIONARY
  5
17
102
{ACAD_REACTORS
330
C
102
}
330
C
100
AcDbDictionary
281
     1
  3
Standard
350
18
  0
DICTIONARY
  5
19
102
{ACAD_REACTORS
330
C
102
}
330
C
100
AcDbDictionary
281
     1
  0
ACDBDICTIONARYWDFLT
  5
E
102
{ACAD_REACTORS
330
C
102
}
330
C
100
AcDbDictionary
281
     1
  3
Normal
350
F
100
AcDbDictionaryWithDefault
340
F
  0
DICTIONARY
  5
47
102
{ACAD_REACTORS
330
C
102
}
330
C
100
AcDbDictionary
281
     1
  3
A0
350
48
  3
A1
350
49
  3
A2
350
4A
  3
A3
350
4B
  3
A4
350
4C
  3
A5
350
4D
  3
A6
350
4E
  3
A7
350
4F
  3
A8
350
50
  3
A9
350
51
  3
B0
350
52
  3
B1
350
53
  3
B2
350
54
  3
B3
350
55
  3
B4
350
56
  3
B5
350
57
  3
B6
350
58
  3
B7
350
59
  3
B8
350
5A
  3
B9
350
5B
  3
C0
350
5C
  3
C1
350
5D
  3
C2
350
5E
  3
C3
350
5F
  3
C4
350
60
  3
C5
350
61
  3
C6
350
62
  3
C7
350
63
  3
C8
350
64
  3
C9
350
65
  3
D0
350
66
  3
D1
350
67
  3
D2
350
68
  0
LAYOUT
  5
1E
102
{ACAD_REACTORS
330
1A
102
}
330
1A
100
AcDbPlotSettings
  1

  2
none_device
  4

  6

 40
0.0
 41
0.0
 42
0.0
 43
0.0
 44
0.0
 45
0.0
 46
0.0
 47
0.0
 48
0.0
 49
0.0
140
0.0
141
0.0
142
1.0
143
1.0
 70
   688
 72
     1
 73
     0
 74
     5
  7

 75
    16
147
1.0
148
0.0
149
0.0
100
AcDbLayout
  1
Layout1
 70
     1
 71
     1
 10
0.0
 20
0.0
 11
420.0
 21
297.0
 12
0.0
 22
0.0
 32
0.0
 14
1.0000000000E+20
 24
1.0000000000E+20
 34
1.0000000000E+20
 15
-1.0000000000E+20
 25
-1.0000000000E+20
 35
-1.0000000000E+20
146
0.0
 13
0.0
 23
0.0
 33
0.0
 16
1.0
 26
0.0
 36
0.0
 17
0.0
 27
1.0
 37
0.0
 76
     0
330
1B
  0
LAYOUT
  5
26
102
{ACAD_REACTORS
330
1A
102
}
330
1A
100
AcDbPlotSettings
  1

  2
none_device
  4

  6

 40
0.0
 41
0.0
 42
0.0
 43
0.0
 44
0.0
 45
0.0
 46
0.0
 47
0.0
 48
0.0
 49
0.0
140
0.0
141
0.0
142
1.0
143
1.0
 70
   688
 72
     1
 73
     0
 74
     5
  7

 75
    16
147
1.0
148
0.0
149
0.0
100
AcDbLayout
  1
Layout2
 70
     1
 71
     2
 10
0.0
 20
0.0
 11
0.0
 21
0.0
 12
0.0
 22
0.0
 32
0.0
 14
0.0
 24
0.0
 34
0.0
 15
0.0
 25
0.0
 35
0.0
146
0.0
 13
0.0
 23
0.0
 33
0.0
 16
1.0
 26
0.0
 36
0.0
 17
0.0
 27
1.0
 37
0.0
 76
     0
330
23
  0
LAYOUT
  5
22
102
{ACAD_REACTORS
330
1A
102
}
330
1A
100
AcDbPlotSettings
  1

  2
none_device
  4
ANSI_A_(11.00_x_8.50_Inches)
  6

 40
6.35
 41
19.05
 42
6.35000508
 43
19.05000254
 44
279.4
 45
215.9
 46
133.3460103786
 47
88.89999873
 48
0.0
 49
0.0
140
0.0
141
0.0
142
0.0086619583
143
1.0
 70
  1696
 72
     0
 73
     0
 74
     0
  7

 75
     0
147
0.0179189148
148
-1300.4909072572
149
0.0
100
AcDbLayout
  1
Model
 70
     1
 71
     0
 10
0.0
 20
0.0
 11
420.0
 21
297.0
 12
0.0
 22
0.0
 32
0.0
 14
-60.289994754
 24
-485.7446590924
 34
0.0
 15
60.3262386843
 25
485.7446590924
 35
0.0
146
0.0
 13
0.0
 23
0.0
 33
0.0
 16
1.0
 26
0.0
 36
0.0
 17
0.0
 27
1.0
 37
0.0
 76
     0
330
1F
331
29
  0
MLINESTYLE
  5
18
102
{ACAD_REACTORS
330
17
102
}
330
17
100
AcDbMlineStyle
  2
Standard
 70
     0
  3

 62
   256
 51
90.0
 52
90.0
 71
     2
 49
0.5
 62
   256
  6
BYLAYER
 49
-0.5
 62
   256
  6
BYLAYER
  0
ACDBPLACEHOLDER
  5
F
102
{ACAD_REACTORS
330
E
102
}
330
E
  0
SCALE
  5
48
102
{ACAD_REACTORS
330
47
102
}
330
47
100
AcDbScale
 70
     0
300
1:1
140
1.0
141
1.0
290
     1
  0
SCALE
  5
49
102
{ACAD_REACTORS
330
47
102
}
330
47
100
AcDbScale
 70
     0
300
1:2
140
1.0
141
2.0
290
     0
  0
SCALE
  5
4A
102
{ACAD_REACTORS
330
47
102
}
330
47
100
AcDbScale
 70
     0
300
1:4
140
1.0
141
4.0
290
     0
  0
SCALE
  5
4B
102
{ACAD_REACTORS
330
47
102
}
330
47
100
AcDbScale
 70
     0
300
1:5
140
1.0
141
5.0
290
     0
  0
SCALE
  5
4C
102
{ACAD_REACTORS
330
47
102
}
330
47
100
AcDbScale
 70
     0
300
1:8
140
1.0
141
8.0
290
     0
  0
SCALE
  5
4D
102
{ACAD_REACTORS
330
47
102
}
330
47
100
AcDbScale
 70
     0
300
1:10
140
1.0
141
10.0
290
     0
  0
SCALE
  5
4E
102
{ACAD_REACTORS
330
47
102
}
330
47
100
AcDbScale
 70
     0
300
1:16
140
1.0
141
16.0
290
     0
  0
SCALE
  5
4F
102
{ACAD_REACTORS
330
47
102
}
330
47
100
AcDbScale
 70
     0
300
1:20
140
1.0
141
20.0
290
     0
  0
SCALE
  5
50
102
{ACAD_REACTORS
330
47
102
}
330
47
100
AcDbScale
 70
     0
300
1:30
140
1.0
141
30.0
290
     0
  0
SCALE
  5
51
102
{ACAD_REACTORS
330
47
102
}
330
47
100
AcDbScale
 70
     0
300
1:40
140
1.0
141
40.0
290
     0
  0
SCALE
  5
52
102
{ACAD_REACTORS
330
47
102
}
330
47
100
AcDbScale
 70
     0
300
1:50
140
1.0
141
50.0
290
     0
  0
SCALE
  5
53
102
{ACAD_REACTORS
330
47
102
}
330
47
100
AcDbScale
 70
     0
300
1:100
140
1.0
141
100.0
290
     0
  0
SCALE
  5
54
102
{ACAD_REACTORS
330
47
102
}
330
47
100
AcDbScale
 70
     0
300
2:1
140
2.0
141
1.0
290
     0
  0
SCALE
  5
55
102
{ACAD_REACTORS
330
47
102
}
330
47
100
AcDbScale
 70
     0
300
4:1
140
4.0
141
1.0
290
     0
  0
SCALE
  5
56
102
{ACAD_REACTORS
330
47
102
}
330
47
100
AcDbScale
 70
     0
300
8:1
140
8.0
141
1.0
290
     0
  0
SCALE
  5
57
102
{ACAD_REACTORS
330
47
102
}
330
47
100
AcDbScale
 70
     0
300
10:1
140
10.0
141
1.0
290
     0
  0
SCALE
  5
58
102
{ACAD_REACTORS
330
47
102
}
330
47
100
AcDbScale
 70
     0
300
100:1
140
100.0
141
1.0
290
     0
  0
SCALE
  5
59
102
{ACAD_REACTORS
330
47
102
}
330
47
100
AcDbScale
 70
     0
300
1/128" = 1'-0"
140
0.0078125
141
12.0
290
     0
  0
SCALE
  5
5A
102
{ACAD_REACTORS
330
47
102
}
330
47
100
AcDbScale
 70
     0
300
1/64" = 1'-0"
140
0.015625
141
12.0
290
     0
  0
SCALE
  5
5B
102
{ACAD_REACTORS
330
47
102
}
330
47
100
AcDbScale
 70
     0
300
1/32" = 1'-0"
140
0.03125
141
12.0
290
     0
  0
SCALE
  5
5C
102
{ACAD_REACTORS
330
47
102
}
330
47
100
AcDbScale
 70
     0
300
1/16" = 1'-0"
140
0.0625
141
12.0
290
     0
  0
SCALE
  5
5D
102
{ACAD_REACTORS
330
47
102
}
330
47
100
AcDbScale
 70
     0
300
3/32" = 1'-0"
140
0.09375
141
12.0
290
     0
  0
SCALE
  5
5E
102
{ACAD_REACTORS
330
47
102
}
330
47
100
AcDbScale
 70
     0
300
1/8" = 1'-0"
140
0.125
141
12.0
290
     0
  0
SCALE
  5
5F
102
{ACAD_REACTORS
330
47
102
}
330
47
100
AcDbScale
 70
     0
300
3/16" = 1'-0"
140
0.1875
141
12.0
290
     0
  0
SCALE
  5
60
102
{ACAD_REACTORS
330
47
102
}
330
47
100
AcDbScale
 70
     0
300
1/4" = 1'-0"
140
0.25
141
12.0
290
     0
  0
SCALE
  5
61
102
{ACAD_REACTORS
330
47
102
}
330
47
100
AcDbScale
 70
     0
300
3/8" = 1'-0"
140
0.375
141
12.0
290
     0
  0
SCALE
  5
62
102
{ACAD_REACTORS
330
47
102
}
330
47
100
AcDbScale
 70
     0
300
1/2" = 1'-0"
140
0.5
141
12.0
290
     0
  0
SCALE
  5
63
102
{ACAD_REACTORS
330
47
102
}
330
47
100
AcDbScale
 70
     0
300
3/4" = 1'-0"
140
0.75
141
12.0
290
     0
  0
SCALE
  5
64
102
{ACAD_REACTORS
330
47
102
}
330
47
100
AcDbScale
 70
     0
300
1" = 1'-0"
140
1.0
141
12.0
290
     0
  0
SCALE
  5
65
102
{ACAD_REACTORS
330
47
102
}
330
47
100
AcDbScale
 70
     0
300
1-1/2" = 1'-0"
140
1.5
141
12.0
290
     0
  0
SCALE
  5
66
102
{ACAD_REACTORS
330
47
102
}
330
47
100
AcDbScale
 70
     0
300
3" = 1'-0"
140
3.0
141
12.0
290
     0
  0
SCALE
  5
67
102
{ACAD_REACTORS
330
47
102
}
330
47
100
AcDbScale
 70
     0
300
6" = 1'-0"
140
6.0
141
12.0
290
     0
  0
SCALE
  5
68
102
{ACAD_REACTORS
330
47
102
}
330
47
100
AcDbScale
 70
     0
300
1'-0" = 1'-0"
140
12.0
141
12.0
290
     0
  0
ENDSEC
  0
EOF
